Home » T » The Last Shadow Puppets »

The Last Shadow Puppets - Bad Habits Bass

Artists:  A B C D E F G H I J K L M N O P Q R S T U V W X Y Z # 

Bad Habits Bass

(ver. 1) Click to play this song!
The Last Shadow Puppets
Tuning:

Intro / Verse 

G|-----------------------------------------| (x6)
D|----22---2----2-0---33---3----3----------|
A|-------2----2-----3----3----3------------|
E|-00------------------------------0-1-3-5-|

Chorus 
                                                       
G|------------------------| (x3) |------------------------------------| x1
D|-5-5--3-3--2--2-2-2-2-2-|      |-5-5--3-3--2----------5/7-5-33-0-22-| continue verse from here
A|------------------------|      |------------------------------------|
E|------------------------|      |------------------------------------|

Verse

G|-----------------------------------------| (x8)
D|----22---2----2-0---33---3----3----------|
A|-------2----2-----3----3----3------------|
E|-00------------------------------0-1-3-5-|

Chorus

G|------------------------| (x3) |------------------------------------| (x1)
D|-5-5--3-3--2--2-2-2-2-2-|      |-5-5--3-3--2----------5/7-5-33-0-22-| continue solo from here
A|------------------------|      |------------------------------------|
E|------------------------|      |------------------------------------|

Solo (same as verse)

G|-----------------------------------------| (x2)
D|----22---2----2-0---33---3----3----------|
A|-------2----2-----3----3----3------------|
E|-00------------------------------0-1-3-5-|

Verse

G|-----------------------------------------| (x1) |------------------------------------------| (x1)
D|----22---2----2-0---33---3----3----------|      |----22---2----2-0---33---3---5/7-5-33-0-2-|
A|-------2----2-----3----3----3------------|      |-------2----2-----3----3------------------|
E|-00------------------------------0-1-3-5-|      |-00---------------------------------------| 

Bridge (no bass...)

"Shoulda known by the way you were showing off" (2nd time)

G|-12/14-12-1010-7----| (x1)
D|-----------------22-| continue verse from here
A|--------------------|
E|--------------------|

Verse

G|-----------------------------------------| (x3) |--------------------------| (x1)
D|----22---2----2-0---33---3----3----------|      |---22---2----2-0---33---3-|
A|-------2----2-----3----3----3------------|      |------2----2-----3----3---|
E|-00------------------------------0-1-3-5-|      |00------------------------|
            
Submit corrections

↑ Back to top | Tablatures and chords for acoustic guitar and electric guitar, ukulele, drums are parodies/interpretations of the original songs. You may use it for private study, scholarship, research or language learning purposes only