Home » T » The Last Shadow Puppets »

The Last Shadow Puppets - Bad Habits Tabs

Artists:  A B C D E F G H I J K L M N O P Q R S T U V W X Y Z # 

Bad Habits Tabs

(ver. 1) Click to play this song!
The Last Shadow Puppets
[VERSE 1]

Soon after 'Knee deep...'

e|-----------------------------------12-12--10-10--0~------------------------|
B|-14/17---------------------------------------------------------------------|
G|--------14/19--------------------------------------------------------------|
D|---------------14/21-------------------------------------------------------|
A|---------------------------------------------------------------------------|
E|---------------------------------------------------------------------------|

e|-12-12--10-10--0~---------------12-12--10-10-------------------------------|
B|---------------------------------------------------------------------------|
G|---------------------------------------------------------------------------|
D|---------------------------------------------------------------------------|
A|---------------------------------------------------------------------------|
E|---------------------------------------------------------------------------|

[PRE-CHORUS]

'Shoulda known, little girl, that you'd do me wrong...'

e|---------------------------------------------------------------------------|
B|---------------------------------------------------------------------------|
G|-/9-7----------------------------------------------------------------------|
D|------9-10-9-9~------------------------------------------------------------|
A|---------------------------------------------------------------------------|
E|---------------------------------------------------------------------------|

'Shoulda known by the way you were showing off...'

e|---------------------------------------------------------------------------|
B|---------------------------------------------------------------------------|
G|-4-7-4---4~----------------------------------------------------------------|
D|-------7-------------------------------------------------------------------|
A|---------------------------------------------------------------------------|
E|---------------------------------------------------------------------------|

[CHORUS]

'Bad Habits!'

e|---------------------------------------------------------------------------|
B|---------------------------------------------------------------------------|
G|-4/5/4--5/7--7/9-----9/12--12/9/14--9/16-----16/19--16/19--16/21-----------|
D|---------------------------------------------------------------------------|
A|---------------------------------------------------------------------------|
E|---------------------------------------------------------------------------|

e|---------------------------------------------------------------------------|
B|---------------------------------------------------------------------------|
G|-19h21tp-------------------------------------------------------------------|
D|---------------------------------------------------------------------------|
A|---------------------------------------------------------------------------|
E|---------------------------------------------------------------------------|

[VERSE 2]

Soon after 'Red lolli...POP!'

(E  F  G F E)

e|-0---------------1---------3--1--0-----------------------------------------|
B|-0---------------1---------3--1--0-----------------------------------------|
G|-1---------------2---------4--2--1-----------------------------------------|
D|-2---------------3---------5--3--2-----------------------------------------|
A|-2---------------3---------5--3--2-----------------------------------------|
E|-0---------------1---------3--1--0-----------------------------------------|

(F  G F)

e|-1---------3--1------------------------------------------------------------|
B|-1---------3--1------------------------------------------------------------|
G|-2---------4--2------------------------------------------------------------|
D|-3---------5--3------------------------------------------------------------|
A|-3---------5--3------------------------------------------------------------|
E|-1---------3--1------------------------------------------------------------|

Straight after last chord:

e|-12-12--10-10--0~---------------12-12--10-10--0~---------------------------|
B|---------------------------------------------------------------------------|
G|---------------------------------------------------------------------------|
D|---------------------------------------------------------------------------|
A|---------------------------------------------------------------------------|
E|---------------------------------------------------------------------------|

e|-12-12--10-10-0~----------------12-12--10-10-------------------------------|
B|---------------------------------------------------------------------------|
G|---------------------------------------------------------------------------|
D|---------------------------------------------------------------------------|
A|---------------------------------------------------------------------------|
E|---------------------------------------------------------------------------|

[SOLO]

e|---------------------------------------------------------------------------|
B|-7----7----7----7----------7----7----7----7--------------------------------|
G|-9b11-9b11-9b11-9b11r9-----9b11-9b11-9b11-9b11r9---------------------------|
D|---------------------------------------------------------------------------|
A|---------------------------------------------------------------------------|
E|---------------------------------------------------------------------------|

e|---------------------------------------------------------------------------|
B|-9-----9-----9-----9-----9------------9-----9-----9-----9-----9------------|
G|-11b13-11b13-11b13-11b13-11b13r11-----11b13-11b13-11b13-11b13-11b13r11-----|
D|---------------------------------------------------------------------------|
A|---------------------------------------------------------------------------|
E|---------------------------------------------------------------------------|

e|---------------------------------------------------------------------------|
B|-10----10----10----10----10-----------10----10----10----10----10-----------|
G|-12b14-12b14-12b14-12b14-12b14r12-----12b14-12b14-12b14-12b14-12b14r12-----|
D|---------------------------------------------------------------------------|
A|---------------------------------------------------------------------------|
E|---------------------------------------------------------------------------|

e|-------------------------/19b20~-------------------------------------------|
B|-12------12------12--------------------------------------------------------|
G|-14b16---14b16---14b16-----------------------------------------------------|
D|---------------------------------------------------------------------------|
A|---------------------------------------------------------------------------|
E|---------------------------------------------------------------------------|            
Submit corrections

↑ Back to top | Tablatures and chords for acoustic guitar and electric guitar, ukulele, drums are parodies/interpretations of the original songs. You may use it for private study, scholarship, research or language learning purposes only