Home » T » The Cribs »

The Cribs - Stalagmites Tabs

Artists:  A B C D E F G H I J K L M N O P Q R S T U V W X Y Z # 

Stalagmites Tabs

(ver. 1) Click to play this song!
The Cribs
[Intro]

e|-9-----------9-7--9-----------9-8--7----------------9-----------9-7---------|
B|---8-------8--------8-------8--------7----------------8-------8-------------|
G|-----9---9------------9---9------------8----------------9---9---------------|
D|-------8----------------8----------------7-8-9------------8-----------------|
A|-----------------------------------------------7-8--------------------------|
E|----------------------------------------------------------------------------|


[Chorus] 
 
Just these 4 chords 
  
  Em   E7 E7sus4 E7
e|-7----7----7----7----------|
B|-8----9---10----9----------|
G|-9----7----7----7----------|
D|-9----9----9----9----------|
A|-7----7----7----7----------|
E|---------------------------|


e|-7---7-7-7-7--7-7-7-7--7-7-7-7--7-7-7--7--7-7-7-7--7-7-7-7--7-7-7-7--7-7-7---|
B|-8---8-8-8-8--8-8-8-8--8-8-8-8--8-8-8--9--9-9-9-9--9-9-9-9--9-9-9-9--9-9-9---|
G|-9---9-9-9-9--9-9-9-9--9-9-9-9--9-9-9--7--7-7-7-7--7-7-7-7--7-7-7-7--7-7-7---|
D|-9---9-9-9-9--9-9-9-9--9-9-9-9--9-9-9--9--9-9-9-9--9-9-9-9--9-9-9-9--9-9-9---|
A|-7---7-7-7-7--7-7-7-7--7-7-7-7--7-7-7--7--7-7-7-7--7-7-7-7--7-7-7-7--7-7-7---|
E|-----------------------------------------------------------------------------|
                                                                                                 x3 both
e|---7---7--7--7--7----7--7--7--7----7--7--7--7----7--7--7---7---7-7-7-7--7-7-7-7--7-7-7-7--7-7-7-|
B|--10--10-10-10-10---10-10-10-10---10-10-10-10---10-10-10---9---9-9-9-9--9-9-9-9--9-9-9-9--9-9-9-|
G|---7---7--7--7--7----7--7--7--7----7--7--7--7----7--7--7---7---7-7-7-7--7-7-7-7--7-7-7-7--7-7-7-| 
D|---9---9--9--9--9----9--9--9--9----9--9--9--9----9--9--9---9---9-9-9-9--9-9-9-9--9-9-9-9--9-9-9-|
A|---7---7--7--7--7----7--7--7--7----7--7--7--7----7--7--7---7---7-7-7-7--7-7-7-7--7-7-7-7--7-7-7-|
E|------------------------------------------------------------------------------------------------|


[Verse]

e|----------------------------------------------------------------------------------------------------|
B|-------9---------------9---------------9---------------9---------------9--------------9-------------|
G|----7----7----7-----7----7----7-----7----7----7-----7----7---7-------7---7----7-----7---7----7------|
D|-10--------10----10--------10----10--------10----10--------10-----10-------10----10-------10--------|
A|----------------------------------------------------------------------------------------------------|
E|----------------------------------------------------------------------------------------------------|

e|---------------------------------------|
B|---------8-----------------------------|
G|----8------8----10--9--12--11----------| x2
D|-10---10-----10------------------------|
A|---------------------------------------|
E|---------------------------------------|


[Chorus]

e|-7---7-7-7-7--7-7-7-7--7-7-7-7--7-7-7--7--7-7-7-7--7-7-7-7--7-7-7-7--7-7-7---|
B|-8---8-8-8-8--8-8-8-8--8-8-8-8--8-8-8--9--9-9-9-9--9-9-9-9--9-9-9-9--9-9-9---|
G|-9---9-9-9-9--9-9-9-9--9-9-9-9--9-9-9--7--7-7-7-7--7-7-7-7--7-7-7-7--7-7-7---|
D|-9---9-9-9-9--9-9-9-9--9-9-9-9--9-9-9--9--9-9-9-9--9-9-9-9--9-9-9-9--9-9-9---|
A|-7---7-7-7-7--7-7-7-7--7-7-7-7--7-7-7--7--7-7-7-7--7-7-7-7--7-7-7-7--7-7-7---|
E|-----------------------------------------------------------------------------|
                                                                                                x5 both
e|---7---7--7--7--7----7--7--7--7----7--7--7--7----7--7--7---7---7-7-7-7--7-7-7-7--7-7-7-7--7-7-7-|
B|--10--10-10-10-10---10-10-10-10---10-10-10-10---10-10-10---9---9-9-9-9--9-9-9-9--9-9-9-9--9-9-9-|
G|---7---7--7--7--7----7--7--7--7----7--7--7--7----7--7--7---7---7-7-7-7--7-7-7-7--7-7-7-7--7-7-7-| 
D|---9---9--9--9--9----9--9--9--9----9--9--9--9----9--9--9---9---9-9-9-9--9-9-9-9--9-9-9-9--9-9-9-|
A|---7---7--7--7--7----7--7--7--7----7--7--7--7----7--7--7---7---7-7-7-7--7-7-7-7--7-7-7-7--7-7-7-|
E|------------------------------------------------------------------------------------------------|


[Verse]

e|----------------------------------------------------------------------------------------------------|
B|-------9---------------9---------------9---------------9---------------9--------------9-------------|
G|----7----7----7-----7----7----7-----7----7----7-----7----7---7-------7---7----7-----7---7----7------|
D|-10--------10----10--------10----10--------10----10--------10-----10-------10----10-------10--------|
A|----------------------------------------------------------------------------------------------------|
E|----------------------------------------------------------------------------------------------------|

e|---------------------------------------|
B|---------8-----------------------------|
G|----8------8----10--9--12--11----------| x1
D|-10---10-----10------------------------|
A|---------------------------------------|
E|---------------------------------------|

[Outro]

e|-9-----------9-7--9-----------9-8--7----------------------------------|
B|---8-------8--------8-------8--------7--------------------------------|
G|-----9---9------------9---9------------8------------------------------|
D|-------8----------------8----------------7-8-9-------------7-8-7-9----|
A|-----------------------------------------------7-8-----7-8------------|
E|---------------------------------------------------8-9----------------|


e|-9-------------------------------------------------------------------------------------------------|
B|---8-----------------------------------------------------------------------------------------------|
G|-----9---8-9---------------------------------------------------------------------------------------|
D|-------8-----7-8---8-----------------11--11-11-11--11-11-11--11-11-11--15--15-15-15--15-15\--------|
A|-----------------7---7-8--------7-8----------------------------------------------------------------|
E|-------------------------7-7--8--------------------------------------------------------------------|            
Submit corrections

↑ Back to top | Tablatures and chords for acoustic guitar and electric guitar, ukulele, drums are parodies/interpretations of the original songs. You may use it for private study, scholarship, research or language learning purposes only