Home » T » The Cribs »

The Cribs - Mirror Kissers Bass

Artists:  A B C D E F G H I J K L M N O P Q R S T U V W X Y Z # 

Mirror Kissers Bass

(ver. 1) Click to play this song!
The Cribs
Intro (0:06)
 
G|-------------------------------|
D|-------------------------------|
A|-----7-7-----7-------7-7-----7-|
E|-0-0-----0---------0-----0-----| (x2)
 
 
Main Riff (0:13)
 
G|-------------------------------------------------------------|
D|-------------------------------------------------------------|
A|-6h7-7-7-7---7-----0h6h7-7-7-----6h7-7-7-7---7-----0h6h7-7-7-|
E|-------------------------------------------------------------|
 
G|-------------------------------------------------------------|
D|-------------------------------------------------------------|
A|-------------------------------------------------------------|
E|-4/5-5-5-5---5-----0h4/5-5-5-----5/7-7-7-7---7-----0h6/7-7-7-| (x3)
 
this riff isn't exact to the album version, because he plays all kinds of variations, but tabbing those
variations would take up most of the tab and be a huge waste of time. basically, he sometimes does and doesn't
play the open notes, and sometimes adds extra hammer-ons, so just play whatever feels best for you.
 
 
Verse (0:48)
 
G|-----------------------------------------------------------------|
D|-----------------------------------------------------------------|
A|-7-7-7-7-7-7-7-7-7-7-7-7-7-7-7-7-7-7-7-7-7-7-7-7-4-4-4-4-4-4-4-4-|
E|-----------------------------------------------------------------|
 
G|-----------------------------------------------------------------|
D|-----------------------------------------------------------------|
A|-0-0-0-0-0-0-0-0-0-0-0-0-0-0-0-0-2-2-2-2-2-2-2-2---x-x-x---x-x---|
E|-----------------------------------------------------------------|
 
G|-----------------------------------------------------------------|
D|-----------------------------------------------------------------|
A|-7-7-7-7-7-7-7-7-7-7-7-7-7-7-7-7-7-7-7-7-7-7-7-7-4-4-4-4-4-4-4-4-|
E|-----------------------------------------------------------------|
 
G|-----------------------------------------------------------------|
D|-----------------------------------------------------------------|
A|-0-0-0-0-0-0-0-0-0-0-0-0-0-0-0-0-2-2-2-2-2-2-2-2-2-2-2-2-2-2-2-2-|
E|-----------------------------------------------------------------|
 
 
Main Riff (1:12)
 
G|-------------------------------------------------------------|
D|-------------------------------------------------------------|
A|-6h7-7-7-7---7-----0h6h7-7-7-----6h7-7-7-7---7-----0h6h7-7-7-|
E|-------------------------------------------------------------|
 
G|-------------------------------------------------------------|
D|-------------------------------------------------------------|
A|-------------------------------------------------------------|
E|-4/5-5-5-5---5-----0h4/5-5-5-----5/7-7-7-7---7-----0h6/7-7-7-| (x2)
 
 
Verse (1:37)
 
G|-----------------------------------------------------------------|
D|-----------------------------------------------------------------|
A|-7-7-7-7-7-7-7-7-7-7-7-7-7-7-7-7-7-7-7-7-7-7-7-7-4-4-4-4-4-4-4-4-|
E|-----------------------------------------------------------------|
 
G|-----------------------------------------------------------------|
D|-----------------------------------------------------------------|
A|-0-0-0-0-0-0-0-0-0-0-0-0-0-0-0-0-2-2-2-2-2-2-2-2-x-x-x-x-x-x-x---|
E|-----------------------------------------------------------------|
 
G|-----------------------------------------------------------------|
D|-----------------------------------------------------------------|
A|-7-7-7-7-7-7-7-7-7-7-7-7-7-7-7-7-7-7-7-7-7-7-7-7-4-4-4-4-4-4-4-4-|
E|-----------------------------------------------------------------|
 
G|-----------------------------------------------------------------|
D|-----------------------------------------------------------------|
A|-0-0-0-0-0-0-0-0-0-0-0-0-0-0-0-0-2-2-2-2-2-2-2-2-2-2-2-2-2-2-2-2-|
E|-----------------------------------------------------------------|
 
 
Main Riff (2:00)
 
G|-------------------------------------------------------------|
D|-------------------------------------------------------------|
A|-6h7-7-7-7---7-----0h6h7-7-7-----6h7-7-7-7---7-----0h6h7-7-7-|
E|-------------------------------------------------------------|
 
G|-------------------------------------------------------------|
D|-------------------------------------------------------------|
A|-------------------------------------------------------------|
E|-4/5-5-5-5---5-----0h4/5-5-5-----5/7-7-7-7---7-----0h6/7-7-7-| (x2)
 
 
Bridge (2:25)
 
G|-----------------------------------------------------------------|
D|-----------------------------------------------------------------|
A|-----------------------------------------------------------------|
E|-5-------5-------5-------5-------7-------7-------7-------7---7---| (x2)
 
G|-----------------------------------------------------------------|
D|-----------------------------------------------------------------|
A|-----------------------------------------------------------------|
E|-5---5---5---5---5---5---5---5---7---7---7---7---7---7---7---7---| (x2)
 
G|-9-9-9-9----9-9-9-9----9-9-9-9----9-9-9-9----9-9-9-9----9-9-9-9----9-9-9-9----9-9-9-9-|
D|--------------------------------------------------------------------------------------|
A|--------------------------------------------------------------------------------------|
E|--------------------------------------------------------------------------------------| 
 
G|-----------------------------------------------------------------------------------------|
D|-I-I-I-I----I-I-I-I----I-I-I-I----I-I-I-I----I-I-I-I----I-I-I-I----I---I---I---I---I---I-|
A|-----------------------------------------------------------------------------------------|
E|-----------------------------------------------------------------------------------------| (I = 11)
 
 
Main Riff (2:58)
 
G|-------------------------------------------------------------|
D|-------------------------------------------------------------|
A|-6h7-7-7-7---7-----0h6h7-7-7-----6h7-7-7-7---7-----0h6h7-7-7-|
E|-------------------------------------------------------------|
 
G|-------------------------------------------------------------|
D|-------------------------------------------------------------|
A|-------------------------------------------------------------|
E|-4/5-5-5-5---5-----0h4/5-5-5-----5/7-7-7-7---7-----0h6/7-7-7-| (x2)
 
 
Outro (3:22)
 
G|--------------------------------------------------------------------|
D|--------------------------------------------------------------------|
A|-6h7-7-7-7---7~------6h7-7-7~----6h7-7-7-7---7~------6h7-7-7--------|
E|----------------------------------------------------------------0-0-|
            
Submit corrections

↑ Back to top | Tablatures and chords for acoustic guitar and electric guitar, ukulele, drums are parodies/interpretations of the original songs. You may use it for private study, scholarship, research or language learning purposes only