Home » T » The Cribs »

The Cribs - Burning For No One Tabs

Artists:  A B C D E F G H I J K L M N O P Q R S T U V W X Y Z # 

Burning For No One Tabs

(ver. 1) Click to play this song!
The Cribs
[Verse 1]

e|--9--9--9---7---5-5-5-5---7----9--9--9---------------------------|
B|--9--9--9---7---5-5-5-5---7----9--9--9---------------------------|
G|-11-11-11---9---7-7-7-7---9---11-11-11---------------------------|
D|-11-11-11---9---7-7-7-7---9---11-11-11---11---12-12-12-12---14---|
A|--9--9--9---7---5-5-5-5---7----9--9--9---11---12-12-12-12---14---|
E|------------------------------------------9---10-10-10-10---12---|

                                 Rose  Tinted           Romance
e|--9--9--9---7---5-5-5-5---7---------------------------------------------------|
B|--9--9--9---7---5-5-5-5---7---------------------------------------------------|
G|-11-11-11---9---7-7-7-7---9---14-14-14-14--14-14-14---13-13-13-13--13-13-13---|
D|-11-11-11---9---7-7-7-7---9---14-14-14-14--14-14-14---13-13-13-13--13-13-13---|
A|--9--9--9---7---5-5-5-5---7---12-12-12-12--12-12-12---11-11-11-11--11-11-11---|
E|------------------------------------------------------------------------------|

e|--9--9--9---7---5-5-5-5---7----9--9--9---------------------------|
B|--9--9--9---7---5-5-5-5---7----9--9--9---------------------------|
G|-11-11-11---9---7-7-7-7---9---11-11-11---------------------------|
D|-11-11-11---9---7-7-7-7---9---11-11-11---11---12-12-12-12---14---|
A|--9--9--9---7---5-5-5-5---7----9--9--9---11---12-12-12-12---14---|
E|------------------------------------------9---10-10-10-10---12---|

                               It's a healthy          interest
e|--9--9--9---7---5-5-5-5---7--------------------------------------------------------------------|
B|--9--9--9---7---5-5-5-5---7--------------------------------------------------------------------|
G|-11-11-11---9---7-7-7-7---9---14-14-14-14--14-14-14---13-13-13-13--13-13-13---7-7-7-7--7-7-7---|
D|-11-11-11---9---7-7-7-7---9---14-14-14-14--14-14-14---13-13-13-13--13-13-13---7-7-7-7--7-7-7---|
A|--9--9--9---7---5-5-5-5---7---12-12-12-12--12-12-12---11-11-11-11--11-11-11---5-5-5-5--5-5-5---|
E|-----------------------------------------------------------------------------------------------|


e|-----------------|
B|-----------------|
G|-----------------|
D|-----------------|
A|----------0-0-0--|
E|-2p0-0-2--0-0-0--|


[Chorus 1]

I'm feeling so eternally grateful...
e|-------------------------------------------------------------------------------|
B|-------------------------------------------------------------------------------|
G|-14--14--14--14---14--14-14--14-14---14-14-14--14-14-14--14-14-14/16-----------|
D|-14--14--14--14---14--14-14--14-14---14-14-14--14-14-14--14-14-14/16-14-14-xx--|
A|-11--12--11--12---11--12-12--12-12---11-11-12--11-11-12--11-11-12/14-14-14-xx--|
E|---------------------------------------------------------------------12-12-xx--|

e|-----------------------------------------------------------------------------|
B|-----------------------------------------------------------------------------|
G|-14--14--14--14--14--14------------14-14-14--14-14-14--14-14-14/16-----------|
D|-14--14--14--14--14--14------------14-14-14--14-14-14--14-14-14/16-14-14-xx--|
A|-11--12--11--12--11--12-12--12-12--11-11-12--11-11-12--11-11-12/14-14-14-xx--|
E|------------------------14--14-14----------------------------------12-12-xx--|

                   Burning for no one                     I'm Burning for no one
e|-----------------------------------------------------------------------------------|
B|-----------------------------------------------------------------------------------|
G|-14--14--14--14---14/19-19-19--19--19-19---14--14--14--14---14/19-19-19--19--19-19-|
D|-14--14--14--14---14/19-19-19--18--18-18---14--14--14--14---14/19-19-19--18--18-18-|
A|-11--12--11--12---12/17-17-17--17--17-17---11--12--11--12---12/17-17-17--17--17-17-|
E|-----------------------------------------------------------------------------------|

I guess I'll be eternally grateful
e|-----------------------------------------------------------------------------|
B|-----------------------------------------------------------------------------|
G|-14--14--14--14--14--14------------14-14-14--14-14-14--14-14-14/16-----------|
D|-14--14--14--14--14--14------------14-14-14--14-14-14--14-14-14/16-14-14-xx--|
A|-11--12--11--12--11--12-12--12-12--11-11-12--11-11-12--11-11-12/14-14-14-xx--|
E|------------------------14--14-14----------------------------------12-12-xx--|

e|-----------------------------------------------------------------------------|
B|-----------------------------------------------------------------------------|
G|-14--14--14--14--14--14------------14-14-14--14-14-14--14-14-14/16-----------|
D|-14--14--14--14--14--14------------14-14-14--14-14-14--14-14-14/16-14-14-xx--|
A|-11--12--11--12--11--12-12--12-12--11-11-12--11-11-12--11-11-12/14-14-14-xx--|
E|------------------------14--14-14----------------------------------12-12-xx--|

                   Burning for no one                     I'm Burning for no one
e|-----------------------------------------------------------------------------------|
B|-----------------------------------------------------------------------------------|
G|-14--14--14--14---14/19-19-19--19--19-19---14--14--14--14---14/19-19-19--19--19-19-|
D|-14--14--14--14---14/19-19-19--18--18-18---14--14--14--14---14/19-19-19--18--18-18-|
A|-11--12--11--12---12/17-17-17--17--17-17---11--12--11--12---12/17-17-17--17--17-17-|
E|-----------------------------------------------------------------------------------|


e|-----------------------------------------------------------------------------------------|
B|-----------------------------------------------------------------------------------------|
G|-14--14--14--14/19-19-19-19-19-19-19-19-18-18-18-18-18-18-18-18--------------------------|
D|-14--14--14--14/-x--x--x--x--x--x--x--x--x--x--x--x--x--x--x--x-18-18-18-18-18-18-18-18--|
A|-11--12--11--12/17-17-17-17-17-17-17-17-17-17-17-17-17-17-17-17-17-17-17-17-17-17-17-17--|
E|-----------------------------------------------------------------------------------------|


[Verse 2]

e|--9--9--9---7---5-5-5-5---7----9--9--9---------------------------|
B|--9--9--9---7---5-5-5-5---7----9--9--9---------------------------|
G|-11-11-11---9---7-7-7-7---9---11-11-11---------------------------|
D|-11-11-11---9---7-7-7-7---9---11-11-11---11---12-12-12-12---14---|
A|--9--9--9---7---5-5-5-5---7----9--9--9---11---12-12-12-12---14---|
E|------------------------------------------9---10-10-10-10---12---|

                                 Rose  Tinted           Romance
e|--9--9--9---7---5-5-5-5---7---------------------------------------------------|
B|--9--9--9---7---5-5-5-5---7---------------------------------------------------|
G|-11-11-11---9---7-7-7-7---9---14-14-14-14--14-14-14---13-13-13-13--13-13-13---|
D|-11-11-11---9---7-7-7-7---9---14-14-14-14--14-14-14---13-13-13-13--13-13-13---|
A|--9--9--9---7---5-5-5-5---7---12-12-12-12--12-12-12---11-11-11-11--11-11-11---|
E|------------------------------------------------------------------------------|

e|--9--9--9---7---5-5-5-5---7----9--9--9---------------------------|
B|--9--9--9---7---5-5-5-5---7----9--9--9---------------------------|
G|-11-11-11---9---7-7-7-7---9---11-11-11---------------------------|
D|-11-11-11---9---7-7-7-7---9---11-11-11---11---12-12-12-12---14---|
A|--9--9--9---7---5-5-5-5---7----9--9--9---11---12-12-12-12---14---|
E|------------------------------------------9---10-10-10-10---12---|

                               It's a healthy          interest
e|--9--9--9---7---5-5-5-5---7--------------------------------------------------------------------|
B|--9--9--9---7---5-5-5-5---7--------------------------------------------------------------------|
G|-11-11-11---9---7-7-7-7---9---14-14-14-14--14-14-14---13-13-13-13--13-13-13---7-7-7-7--7-7-7---|
D|-11-11-11---9---7-7-7-7---9---14-14-14-14--14-14-14---13-13-13-13--13-13-13---7-7-7-7--7-7-7---|
A|--9--9--9---7---5-5-5-5---7---12-12-12-12--12-12-12---11-11-11-11--11-11-11---5-5-5-5--5-5-5---|
E|-----------------------------------------------------------------------------------------------|


e|-----------------|
B|-----------------|
G|-----------------|
D|-----------------|
A|-----------------|
E|-2p0-0-2--3-5-0--|


[Chorus 2]

I'm feeling so eternally grateful...
e|-------------------------------------------------------------------------------|
B|-------------------------------------------------------------------------------|
G|-14--14--14--14---14--14-14--14-14---14-14-14--14-14-14--14-14-14/16-----------|
D|-14--14--14--14---14--14-14--14-14---14-14-14--14-14-14--14-14-14/16-14-14-xx--|
A|-11--12--11--12---11--12-12--12-12---11-11-12--11-11-12--11-11-12/14-14-14-xx--|
E|---------------------------------------------------------------------12-12-xx--|

e|---------------------------------------------------------------------------|
B|---------------------------------------------------------------------------|
G|-14--14--14--14--14--14------------14-14-14--14-14-14--14-14-14/16---------|
D|-14--14--14--14--14--14------------14-14-14--14-14-14--14-14-14/16-14-14---|
A|-11--12--11--12--11--12-12--12-12--11-11-12--11-11-12--11-11-12/14-14-14---|
E|------------------------14--14-14----------------------------------12-12---|

                   Burning for no one                     I'm Burning for no one
e|-----------------------------------------------------------------------------------|
B|-----------------------------------------------------------------------------------|
G|-14--14--14--14---14/19-19-19--19--19-19---14--14--14--14---14/19-19-19--19--19-19-|
D|-14--14--14--14---14/19-19-19--18--18-18---14--14--14--14---14/19-19-19--18--18-18-|
A|-11--12--11--12---12/17-17-17--17--17-17---11--12--11--12---12/17-17-17--17--17-17-|
E|-----------------------------------------------------------------------------------|

I guess I'll be eternally grateful
e|-----------------------------------------------------------------------------|
B|-----------------------------------------------------------------------------|
G|-14--14--14--14--14--14------------14-14-14--14-14-14--14-14-14/16-----------|
D|-14--14--14--14--14--14------------14-14-14--14-14-14--14-14-14/16-14-14-xx--|
A|-11--12--11--12--11--12-12--12-12--11-11-12--11-11-12--11-11-12/14-14-14-xx--|
E|------------------------14--14-14----------------------------------12-12-xx--|

e|-----------------------------------------------------------------------------
|
B|-----------------------------------------------------------------------------|
G|-14--14--14--14--14--14------------14-14-14--14-14-14--14-14-14/16-----------|
D|-14--14--14--14--14--14------------14-14-14--14-14-14--14-14-14/16-14-14-xx--|
A|-11--12--11--12--11--12-12--12-12--11-11-12--11-11-12--11-11-12/14-14-14-xx--|
E|------------------------14--14-14----------------------------------12-12-xx--|

                   Burning for no one                     I'm Burning for no one
e|-----------------------------------------------------------------------------------|
B|-----------------------------------------------------------------------------------|
G|-14--14--14--14---14/19-19-19--19--19-19---14--14--14--14---14/19-19-19--19--19-19-|
D|-14--14--14--14---14/19-19-19--18--18-18---14--14--14--14---14/19-19-19--18--18-18-|
A|-11--12--11--12---12/17-17-17--17--17-17---11--12--11--12---12/17-17-17--17--17-17-|
E|-----------------------------------------------------------------------------------|


e|------------------------------------------------------------------|
B|------------------------------------------------------------------|
G|-14--14--14--14/19-19-19-19-19-19-19-19-18-18-18-18-18-18-18-18---|
D|-14--14--14--14/-x--x--x--x--x--x--x--x--x--x--x--x--x--x--x--x---|
A|-11--12--11--12/17-17-17-17-17-17-17-17-17-17-17-17-17-17-17-17---|
E|------------------------------------------------------------------|

e|--------------------------------------------------------------------------|
B|--------------------------------------------------------------------------|
G|-19-19-19--18-18-18-------------------------------------------------------|
D|--x--x--x--x--x---x--18-18-18-18-18-18-18-18-18-18-18-18-18-18-18-18--19\-|
A|-17-17-17--17-17-17--17-17-17-17-17-17-17-17-17-17-17-17-17-17-17-17------|
E|--------------------------------------------------------------------------|            
Submit corrections

↑ Back to top | Tablatures and chords for acoustic guitar and electric guitar, ukulele, drums are parodies/interpretations of the original songs. You may use it for private study, scholarship, research or language learning purposes only