» » »

Stone Temple Pilots - Silvergun Superman Bass

Artists:  A B C D E F G H I J K L M N O P Q R S T U V W X Y Z # 

Silvergun Superman Bass

(ver. 1) Click to play this song!
Stone Temple Pilots
 Rating:
4.3/5 (16 votes)

 Silvergun Superman lessons Tabs too difficult? Try these video lessons and learn fast
 
                INTRO:
                              s 
G |---------------------------------|
D |---------------------------------|
A |---------------------------------|
D |-r-------------------------3-3---|
    1   &   2   &   3   &   4   &

          s           s       s             s           s       s
G |---------------------------------|---------------------------------|
D |---------------------------------|---------------------------------|
A |---------------------------------|---------------------------------|
D |-0-----0-r---0-----0-r-----3-3---|-0-----0-r---0-----0-r-----3-3---|
    1   &   2   &   3   &   4   &     1   &   2   &   3   &   4   &

          s           s       s             s     s s s s s     s s s
G |---------------------------------|---------------------------------|
D |---------------------------------|---------------------------------|
A |---------------------------------|---------------------------------|
D |-0-----0-r---0-----0-r-----3-3---|-0-----0-0---0-2-3-3-3-3---2-2-0-|
    1   &   2   &   3   &   4   &     1   &   2   &   3   &   4   &


VERSE 1 (x4):
        s s s s s s s s s     s s s       s s s s s s s s s     s
G |---------------------------------|---------------------------------|
D |---------------------------------|---------------------------------|
A |-----------------------3---0-3-5-|---------------------------------|
D |-0---0-0-3-3-3-0-5-6-7-----------|-0---0-0-3-3-3-0-5-6-7-6---5-3---|
    1   &   2   &   3   &   4   &     1   &   2   &   3   &   4   &


CHORUS 1:
                 s s s      s s           s s s s s     s       s s s
G |---------------------------------|---------------------------------|
D |---------------------------------|----------ls-7-------------------|
A |-5-------5----5-0-2-5----5-0-5---|(5)--5-5-7/9---9---7-5-----0-0-2-|
D |---------------------------------|---------------------------------|
    1   &   2   &   3   &   4   &     1   &   2   &   3   &   4   &

                 s s s      s s       s s s s     s s     s s     s s
G |---------------------------------|---------------------------------|
D |---------------------------------|---------------------------------|
A |-5-------5----5-0-2-5----5-0-5---|(5)------5---5-3-1---1-1-3---3-3-|
D |---------------------------------|---0-5-7-------------------------|
    1   &   2   &   3   &   4   &     1   &   2   &   3   &   4   &

                 s s s      s s           s s s s s     s       s s s
G |---------------------------------|---------------------------------|
D |---------------------------------|----------ls-7-------------------|
A |-5-------5----5-0-2-5----5-0-5---|(5)--5-5-7/9---9---7-5-----0-0-2-|
D |---------------------------------|---------------------------------|
    1   &   2   &   3   &   4   &     1   &   2   &   3   &   4   &

                 s s s      s s       s s s s     s s s s s     s s s
G |---------------------------------|---------------------------------|
D |---------------------------------|---------------------------------|
A |-5-------5----5-0-2-5----5-0-5---|(5)------5-----------------------|
D |---------------------------------|---0-5-7-----0-2-3-3-3-3---2-2-0-|
    1   &   2   &   3   &   4   &     1   &   2   &   3   &   4   &


VERSE 2 (x4):
        s s s s s s s s s     s s s       s s s s s s s s s     s
G |---------------------------------|---------------------------------|
D |---------------------------------|---------------------------------|
A |-----------------------3---0-3-5-|---------------------------------|
D |-0---0-0-3-3-3-0-5-6-7-----------|-0---0-0-3-3-3-0-5-6-7-6---5-3---|
    1   &   2   &   3   &   4   &     1   &   2   &   3   &   4   &


CHORUS 2:
                 s s s      s s           s s s s s     s       s s s
G |---------------------------------|---------------------------------|
D |---------------------------------|----------ls-7-------------------|
A |-5-------5----5-0-2-5----5-0-5---|(5)--5-5-7/9---9---7-5-----0-0-2-|
D |---------------------------------|---------------------------------|
    1   &   2   &   3   &   4   &     1   &   2   &   3   &   4   &

                 s s s      s s       s s s s     s s     s s     s s
G |---------------------------------|---------------------------------|
D |---------------------------------|---------------------------------|
A |-5-------5----5-0-2-5----5-0-5---|(5)------5---5-3-1---1-1-3---3-3-|
D |---------------------------------|---0-5-7-------------------------|
    1   &   2   &   3   &   4   &     1   &   2   &   3   &   4   &

                 s s s      s s           s s s s s     s       s s s
G |---------------------------------|---------------------------------|
D |---------------------------------|----------ls-7-------------------|
A |-5-------5----5-0-2-5----5-0-5---|(5)--5-5-7/9---9---7-5-----0-0-2-|
D |---------------------------------|---------------------------------|
    1   &   2   &   3   &   4   &     1   &   2   &   3   &   4   &

                 s s s      s s       s s s s     s s s s s     s s s
G |---------------------------------|---------------------------------|
D |---------------------------------|---------------------------------|
A |-5-------5----5-0-2-5----5-0-5---|(5)------5-----------------------|
D |---------------------------------|---0-5-7-----0-2-3-3-3-3---2-2-0-|
    1   &   2   &   3   &   4   &     1   &   2   &   3   &   4   &


PRE-BRIDGE:
        s s     s s s s s     s s s       s s     s s s s s     s s s
G |---------------------------------|---------------------------------|---------------------------------|
D |---------------------------------|---------------------------------|---------------------------------|
A |---------------------------------|---------------------------------|---------------------------------|
D |-0---0-0-0---0-2-3-3-3-3---2-2-2-|-0---0-0-0---0-2-3-3-3-3---2-2-0-|-0-----------------------12--\---|
    1   &   2   &   3   &   4   &     1   &   2   &   3   &   4   &     1   &   2   &   3   &   4   &


BRIDGE (Repeat 1st staff x3):

    s s s s s s s s s s s s s s s s   s s s s s s s s s s s s s s s s
G |---------5-----------5-7---------|---------5-----------5-7---------|
D |-0-0-5-7---0-0-0-5-7-----0-0-3-4-|-0-0-5-7---0-0-0-5-7-----0-0-3-4-|
A |---------------------------------|---------------------------------|
D |---------------------------------|---------------------------------|
    1   &   2   &   3   &   4   &     1   &   2   &   3   &   4   &

    s s s s s s s s s s s s s s s s   s s s s s s s s s s s
G |---------5-----------5-7---------|---------5-----------5-----------|
D |-0-0-5-7---0-0-0-5-7-----0-0-3-4-|-0-0-5-7---0-0-0-5-7---0---------|
A |---------------------------------|---------------------------------|
D |---------------------------------|---------------------------3-3---|
    1   &   2   &   3   &   4   &     1   &   2   &   3   &   4   &


PRE-CHORUS:
          s           s       s             s           s       s
G |---------------------------------|---------------------------------|
D |---------------------------------|---------------------------------|
A |---------------------------------|---------------------------------|
D |-0-----0-r---0-----0-r-----3-3---|-0-----0-r---0-----0-r-----3-3---|
    1   &   2   &   3   &   4   &     1   &   2   &   3   &   4   &

          s           s       s             s     s s s s s     s s s
G |---------------------------------|---------------------------------|
D |---------------------------------|---------------------------------|
A |---------------------------------|---------------------------------|
D |-0-----0-r---0-----0-r-----3-3---|-0-----0-0---0-2-3-3-3-3---2-2-0-|
    1   &   2   &   3   &   4   &     1   &   2   &   3   &   4   &


CHORUS 3 (Repeat 1st two staffs x2):
                 s s s      s s           s s s s s     s       s s s
G |---------------------------------|---------------------------------|
D |---------------------------------|----------ls-7-------------------|
A |-5-------5----5-0-2-5----5-0-5---|(5)--5-5-7/9---9---7-5-----0-0-2-|
D |---------------------------------|---------------------------------|
    1   &   2   &   3   &   4   &     1   &   2   &   3   &   4   &

                 s s s      s s       s s s s     s s     s s     s s
G |---------------------------------|---------------------------------|
D |---------------------------------|---------------------------------|
A |-5-------5----5-0-2-5----5-0-5---|(5)------5---5-3-1---1-1-3---3-3-|
D |---------------------------------|---0-5-7-------------------------|
    1   &   2   &   3   &   4   &     1   &   2   &   3   &   4   &

(Repeat next two staffs x2):

                 s s s      s s           s s s s s     s       s s s
G |---------------------------------|---------------------------------|
D |---------------------------------|----------ls-7-------------------|
A |-5-------5----5-0-2-5----5-0-5---|(5)--5-5-7/9---9---7-5-----0-0-2-|
D |---------------------------------|---------------------------------|
    1   &   2   &   3   &   4   &     1   &   2   &   3   &   4   &

                 s s s      s s       s s s s     s s     s s     s s
G |---------------------------------|---------------------------------|
D |---------------------------------|---------------------------------|
A |-5-------5----5-0-2-5----5-0-5---|(5)------5---5-3-1-1-1-1-3-3-3-3-|
D |---------------------------------|---0-5-7-------------------------|
    1   &   2   &   3   &   4   &     1   &   2   &   3   &   4   &


GUITAR SOLO (x2):
                 s s s      s s           s s s s s     s       s s s
G |---------------------------------|---------------------------------|
D |---------------------------------|----------ls-7-------------------|
A |-5-------5----5-0-2-5----5-0-5---|(5)--5-5-7/9---9---7-5-----0-0-2-|
D |---------------------------------|---------------------------------|
    1   &   2   &   3   &   4   &     1   &   2   &   3   &   4   &

                 s s s      s s       s s s s     s s     s s     s s
G |---------------------------------|---------------------------------|
D |---------------------------------|---------------------------------|
A |-5-------5----5-0-2-5----5-0-5---|(5)------5---5-3-1---1-1-3---3-3-|
D |---------------------------------|---0-5-7-------------------------|
    1   &   2   &   3   &   4   &     1   &   2   &   3   &   4   &


OUTRO:
                 s s s      s s           s s s s s     s       s s s
G |---------------------------------|---------------------------------|
D |---------------------------------|----------ls-7-------------------|
A |-5-------5----5-0-2-5----5-0-5---|(5)--5-5-7/9---9---7-5-----0-0-2-|
D |---------------------------------|---------------------------------|
    1   &   2   &   3   &   4   &     1   &   2   &   3   &   4   &

                 s s s      s s       s s s s     s s     s s     s s
G |---------------------------------|---------------------------------|
D |---------------------------------|---------------------------------|
A |-5-------5----5-0-2-5----5-0-5---|(5)------5---5-3-1---1-1-3---3-3-|
D |---------------------------------|---0-5-7-------------------------|
    1   &   2   &   3   &   4   &     1   &   2   &   3   &   4   &

    s s s s s s s s s s s s s s s s   s s s s s s s s s s s s s s s s
G |---------5-----------5-7---------|---------5-----------5-7---------|
D |-0-0-5-7---0-0-0-5-7-----0-0-3-4-|-0-0-5-7---0-0-0-5-7-----0-0-3-4-|
A |---------------------------------|---------------------------------|
D |---------------------------------|---------------------------------|
    1   &   2   &   3   &   4   &     1   &   2   &   3   &   4   &

    s s s s s s s s s s s s s s s s   s s s s s s s s s s s s s s s s
G |---------5-----------5-7---------|---------5-----------------------|
D |-0-0-5-7---0-0-0-5-7-----0-0-3-4-|-0-0-5-7---0-0-0-----------------|
A |---------------------------------|-----------------1-1-1-1-3-3-3-3-|
D |---------------------------------|---------------------------------|
    1   &   2   &   3   &   4   &     1   &   2   &   3   &   4   &

    s s s s s s s s s s s s s s s s   s s s s s s s s s s s s s s s s
G |---------5-----------5-7---------|---------5-----------5-7---------|
D |-0-0-5-7---0-0-0-5-7-----0-0-3-4-|-0-0-5-7---0-0-0-5-7-----0-0-3-4-|
A |---------------------------------|---------------------------------|
D |---------------------------------|---------------------------------|
    1   &   2   &   3   &   4   &     1   &   2   &   3   &   4   &

    s s s s s s s s s s s s s s s s   s s
G |---------5-----------5-7---------|---------------------------------|
D |-0-0-5-7---0-0-0-5-7-----0-0-3-4-|-0-0-r---------------------------|
A |---------------------------------|---------------------------------|
D |---------------------------------|---------------------------------|
    1   &   2   &   3   &   4   &     1   &   2   &   3   &   4   &

            
Submit corrections


        Silvergun Superman lessons Hard to play? Try these video lessons and learn fast Silvergun Superman lessons
        
↑ Back to top | Tablatures and chords for acoustic guitar and electric guitar, ukulele, drums are parodies/interpretations of the original songs. You may use it for private study, scholarship, research or language learning purposes only