» » »

Stone Temple Pilots - Plush Bass

Artists:  A B C D E F G H I J K L M N O P Q R S T U V W X Y Z # 

Plush Bass

(ver. 4) Click to play this song!
Stone Temple Pilots
 Rating:
4.1/5 (31 vote)

 Plush lessons Tabs too difficult? Try these video lessons and learn fast
 
                
[INTRO]
     G                 Gmb5                               Am7               G
G|----------------------------------------------------|----------------------------------------------------|
D|----------------------------------------------------|----------------------------------------------------|
A|--------------------1L----------------------1--2----|--3-----3-----------------------------2--3--4-------|
E|--3-----3--------------------------------3----------|--------------------3L-------------3----------------|

    G                 Gmb5                               Am7               G
G|----------------------------------------------------|----------------------------------------------------|
D|----------------------------------------------------|----------------------------------------------------|
A|--5-----------------1L----------------------1--2----|--3-----3-----------------------------2--3--4-------|x2
E|--------3--------------------------------3----------|--------------------3L-------------3----------------|

    G                 Gmb5                               Am7               G     
G|----------------------------------------------------|-------------------------------------------|----------|
D|----------------------------------------------------|-------------------------------------------|----------|
A|--5-----------------1L----------------------1--2----|--3-----3----------------------------------|----------|
E|--------3--------------------------------3----------|--------------------3L---------------------|----------|

[VERSE I]
    G                      D/F#                          F                     C 
G|----------------------------------------------------|----------------------------------------------------|
D|o----------------------5--4--------------------2----|--3-----3--------------3--2--------------------0----|
A|o-------------------------------5-------------------|--------------------------------3-------------------|
E|--3-----3-------------------------------------------|----------------------------------------------------|

    Ebmaj7                  F
G|----------------------------------------------------|
D|--1-----1-----------------1--1.----1--3-----3------o|
A|-----------------------1---------------------------o| x2
E|----------------------------------------------------|

[PRE-CHORUS]
    D       Cadd9         G/B           Cadd9              D       Cadd9         G/B           Cadd9       
G|----------------------------------------------------|----------------------------------------------------|
D|--------------------------------------------3--4----|----------------------------------------------------|
A|--5-----------3--------2--------3--------5----------|--5--------5--3--------2-----5-----------2--3--4----|
E|----------------------------------------------------|--------------------------------2--3--5-------------|

    D       Cadd9         G/B           Cadd9              D       Cadd9         G/B           Cadd9       
G|----------------------------------------------------|----------------------------------------------------|
D|--------------------------------------------3--4----|----------------------------------------------------|
A|--5-----------3--------2--------3-----3--5----------|--5--------5--3--------2--------3L-------5--5-------|
E|----------------------------------------------------|----------------------------------------------------|

[CHORUS]                                               ___________
    Ebmaj7                                             |1 F
G||--------------------------------------------5-------|---------------------------------------------------*|
D||-----------------------------------------5-----8----|--7------------------------------------------------*|
A||--6-----6-----------------6--6.-------6-------------|--------8-----------------8--8.-------8--8--7------*|
E||-----------------------6-----------6----------------|-----------------------8-----------8---------------*|
 ___________                                           ___________
 |2 F                                                  |3 F
G|----------------------------------------------------*|---------------------------------------------------*|
D|--7-------------------------------------------------*|--7------------------------------------------------*|
A|--------8-----------------8--8.-------8--10--8------*|--------8-----------------8--8.-------8--8--7------*|
E|-----------------------8-----------8----------------*|-----------------------8-----------8---------------*|
 ___________                                          
 |4 F                                                 
G|---------------------------------------------------||
D|--7------------------------------------------------||
A|--------8-----------------8--8.-------8--8---------||
E|-----------------------8-----------8---------8\----||

[SHORT INTRO]
    G                 Gmb5                               Am7               G
G|----------------------------------------------------|----------------------------------------------------|
D|----------------------------------------------------|----------------------------------------------------|
A|--5-----------------1L----------------------1--2----|--3-----3-----------------------------2--3--4-------|x2
E|--------3--------------------------------3----------|--------------------3L-------------3----------------|

[VERSE I]
    G                      D/F#                          F                     C 
G|----------------------------------------------------|----------------------------------------------------|
D|o----------------------5--4--------------------2----|--3-----3--------------3--2--------------------0----|
A|o-------------------------------5-------------------|--------------------------------3-------------------|
E|--3-----3-------------------------------------------|----------------------------------------------------|

    Ebmaj7                  F
G|----------------------------------------------------|
D|--1-----1-----------------1--1.----1--3-----3------o|
A|-----------------------1---------------------------o| x2
E|----------------------------------------------------|

[PRE-CHORUS] 
    D       Cadd9         G/B           Cadd9              D       Cadd9         G/B           Cadd9       
G|----------------------------------------------------|----------------------------------------------------|
D|--------------------------------------------3--4----|----------------------------------------------------|
A|--5-----------3--------2--------3--------5----------|--5--------5--3--------2-----5-----------2--3--4----|
E|----------------------------------------------------|--------------------------------2--3--5-------------|

    D       Cadd9         G/B           Cadd9              D       Cadd9         G/B           Cadd9       
G|----------------------------------------------------|----------------------------------------------------|
D|--------------------------------------------3--4----|----------------------------------------------------|
A|--5-----------3--------2--------3-----3--5----------|--5--------5--3--------2--------3L-------5--5-------|
E|----------------------------------------------------|----------------------------------------------------|

[CHORUS]                                               ___________
    Ebmaj7                                             |1 F
G||--------------------------------------------5-------|---------------------------------------------------*|
D||-----------------------------------------5-----8----|--7------------------------------------------------*|
A||--6-----6-----------------6--6.-------6-------------|--------8-----------------8--8.-------8--8--7------*|
E||-----------------------6-----------6----------------|-----------------------8-----------8---------------*|
 ___________                                           ___________
 |2 F                                                  |3 F
G|----------------------------------------------------*|---------------------------------------------------*|
D|--7-------------------------------------------------*|--7------------------------------------------------*|
A|--------8-----------------8--8.-------8--10--8------*|--------8-----------------8--8.-------8--8--7------*|
E|-----------------------8-----------8----------------*|-----------------------8-----------8---------------*|
 ___________                                          
 |4 F                                                 
G|---------------------------------------------------||
D|--7------------------------------------------------||
A|--------8-----------------8--8.-------8--8---------||
E|-----------------------8-----------8---------8\----||

[VERSE II]
    G5                      F5                           C/E                     Eb5         D5
G|----------------------------------------------------|----------------------------------------------------|
D|----------------------------------------------------|----------------------------------------------------|
A|----------------------------------------------------|-----------------x--x--5--6--6--6--6--5--5--5\------|x3
E|--3--3--3--3--3.-------3--1--1--1.-------1-----1----|--0--0--0--0--0-------------------------------------|

    G5                      F5                           C/E                     Eb5         D5 
G|----------------------------------------------------|----------------------------------------------------|
D|----------------------------------------------------|----------------------------------------------------|
A|----------------------------------------------------|-----------------x--x--5--6-----------5L-----\------|
E|--3--3--3--3--3.-------3--1--1--1.-------1-----1----|--0--0--0--0--0-------------------------------------|

[INTRO]
     G                 Gmb5                               Am7               G
G|----------------------------------------------------|----------------------------------------------------|
D|----------------------------------------------------|----------------------------------------------------|
A|--------------------1L----------------------1--2----|--3-----3-----------------------------2--3--4-------|
E|--3-----3--------------------------------3----------|--------------------3L-------------3----------------|

    G                 Gmb5                               Am7               G
G|----------------------------------------------------|----------------------------------------------------|
D|----------------------------------------------------|----------------------------------------------------|
A|--5-----------------1L----------------------1--2----|--3-----3-----------------------------2--3--4-------|x2
E|--------3--------------------------------3----------|--------------------3L-------------3----------------|

    G                 Gmb5                               Am7               G     
G|----------------------------------------------------|-------------------------------------------|----------|
D|----------------------------------------------------|-------------------------------------------|----------|
A|--5-----------------1L----------------------1--2----|--3-----3----------------------------------|----------|
E|--------3--------------------------------3----------|--------------------3L---------------------|----------|

[CHORUS]                                               ___________
    Ebmaj7                                             |1 F
G||--------------------------------------------5-------|---------------------------------------------------*|
D||-----------------------------------------5-----8----|--7------------------------------------------------*|
A||--6-----6-----------------6--6.-------6-------------|--------8-----------------8--8.-------8--8--7------*|
E||-----------------------6-----------6----------------|-----------------------8-----------8---------------*|
 ___________                                           ___________
 |2 F                                                  |3 F
G|----------------------------------------------------*|---------------------------------------------------*|
D|--7-------------------------------------------------*|--7------------------------------------------------*|
A|--------8-----------------8--8.-------8--10--8------*|--------8-----------------8--8.-------8--8--7------*|
E|-----------------------8-----------8----------------*|-----------------------8-----------8---------------*|
 ___________                                          
 |4 F                                                 
G|---------------------------------------------------||
D|--7------------------------------------------------||
A|--------8-----------------8--8.-------8--8---------||
E|-----------------------8-----------8---------8\----||

[VERSE II]
    G5                      F5                           C/E                     Eb5         D5
G|----------------------------------------------------|----------------------------------------------------|
D|----------------------------------------------------|----------------------------------------------------|
A|----------------------------------------------------|-----------------x--x--5--6--6--6--6--5--5--5\------|x3
E|--3--3--3--3--3.-------3--1--1--1.-------1-----1----|--0--0--0--0--0-------------------------------------|

    G5                      F5                           C/E                     Eb5         D5 
G|----------------------------------------------------|----------------------------------------------------|
D|----------------------------------------------------|----------------------------------------------------|
A|----------------------------------------------------|-----------------x--x--5--6-----------5L-----\------|
E|--3--3--3--3--3.-------3--1--1--1.-------1-----1----|--0--0--0--0--0-------------------------------------|

[INTRO]
     G                 Gmb5                               Am7               G
G|----------------------------------------------------|----------------------------------------------------|
D|----------------------------------------------------|----------------------------------------------------|
A|--------------------1L----------------------1--2----|--3-----3-----------------------------2--3--4-------|
E|--3-----3--------------------------------3----------|--------------------3L-------------3----------------|

    G                 Gmb5                               Am7               G
G|----------------------------------------------------|----------------------------------------------------|
D|----------------------------------------------------|----------------------------------------------------|
A|--5-----------------1L----------------------1--2----|--3-----3-----------------------------2--3--4-------|x2
E|--------3--------------------------------3----------|--------------------3L-------------3----------------|

    G                 Gmb5                               Am7               G     
G|----------------------------------------------------|-------------------------------------------|----------|
D|----------------------------------------------------|-------------------------------------------|----------|
A|--5-----------------1L----------------------1--2----|--3-----3----------------------------------|----------|
E|--------3--------------------------------3----------|--------------------3L---------------------|----------|            
Submit corrections


        Plush lessons Hard to play? Try these video lessons and learn fast Plush lessons
        
↑ Back to top | Tablatures and chords for acoustic guitar and electric guitar, ukulele, drums are parodies/interpretations of the original songs. You may use it for private study, scholarship, research or language learning purposes only