» » »

Stone Temple Pilots - Meadow Bass

Artists:  A B C D E F G H I J K L M N O P Q R S T U V W X Y Z # 

Meadow Bass

(ver. 1) Click to play this song!
Stone Temple Pilots
 Rating:
4.3/5 (16 votes)

 Meadow lessons Tabs too difficult? Try these video lessons and learn fast
 
                INTRO:
       (Rest x3)
G |-----------------||-----------------|
D |-----------------||-----------------|
A |-----------------||-------------0-5-|
E |-r---------------||-r---------2-----|
    1 & 2 & 3 & 4 &    1 & 2 & 3 & 4 &

G |-----------------|-----------------|-----------------|-----------------|
D |-----------------|-----------------|-----------------|-----------------|
A |-2-2-2-2-2-2-2-2-|-2-2-2-2-2-2-2-2-|-2-2-2-2-2-2-2-2-|-2-2-2-2-2---0-5-|
E |-----------------|-----------------|-----------------|-----------2-----|
    1 & 2 & 3 & 4 &   1 & 2 & 3 & 4 &   1 & 2 & 3 & 4 &   1 & 2 & 3 & 4 &


VERSE 1 (x2):

G |-----------------|-----------------|-----------------|-----------------|
D |-----------------|-----------------|-----------------|-----------------|
A |-2-2-2-2-2-2-2-2-|-2-2-2-2-2-2-2-2-|-2-2-2-2-2-2-2-2-|-2-2-2-2-2---0-5-|
E |-----------------|-----------------|-----------------|-----------2-----|
    1 & 2 & 3 & 4 &   1 & 2 & 3 & 4 &   1 & 2 & 3 & 4 &   1 & 2 & 3 & 4 &

G |-----------------|-----------------|-----------------|-----------------|
D |-----------------|-----------------|-----------------|-----------------|
A |-2-2-2-2-2-2-2-2-|-2-2-2-2-2-2-2-/-|-7---7---7-^(7)5-|(5)5-5---5-2-5-2-|
E |-----------------|-----------------|-----------------|-----------------|
    1 & 2 & 3 & 4 &   1 & 2 & 3 & 4 &   1 & 2 & 3 & 4 &   1 & 2 & 3 & 4 &


FILL:

G |-----------------|-----------------|
D |-----------------|-----------------|
A |-2-2-2-2-2-2-2-2-|-2-2-2-2-2-2-2-/-|
E |-----------------|-----------------|
    1 & 2 & 3 & 4 &   1 & 2 & 3 & 4 &


PRE-CHORUS:

G |-----------------|-----------------|-----------------|-----------------|
D |-9-9-9-9-9-9-9-9-|-9-9-9-9-9-9-9---|-----------------|-----------------|
A |-----------------|---------------9-|-7-7-7-7-7-7-7-7-|-7-7-7-7-7-7-7-9-|
E |-----------------|-----------------|-----------------|-----------------|
    1 & 2 & 3 & 4 &   1 & 2 & 3 & 4 &   1 & 2 & 3 & 4 &   1 & 2 & 3 & 4 &

G |-----------------|-----------------|-----------------|-----------------|
D |-7-7-7-7-7-7-7-7-|-7-7-7-7-7-7-7---|-9-9-9-9-9-9-9-9-|-9-9-9-9-9-9-9-\-|
A |-----------------|---------------9-|-----------------|-----------------|
E |-----------------|-----------------|-----------------|-----------------|
    1 & 2 & 3 & 4 &   1 & 2 & 3 & 4 &   1 & 2 & 3 & 4 &   1 & 2 & 3 & 4 &


CHORUS 1:
                 ( x4 )
G |-----------------|-----------------|
D |-----------------|-----------------|
A |-0-0-5-2---2-5-2-|-0-0-5-2---2-5-2-|
E |-----------------|-----------------|
    1 & 2 & 3 & 4 &   1 & 2 & 3 & 4 &


PRE-VERSE:
       (Rest x3)
G |-----------------||-----------------|
D |-----------------||-----------------|
A |-----------------||-------------0-5-|
E |-r---------------||-r---------2-----|
    1 & 2 & 3 & 4 &    1 & 2 & 3 & 4 &


VERSE 2 (x2):

G |-----------------|-----------------|-----------------|-----------------|
D |-----------------|-----------------|-----------------|-----------------|
A |-2-2-2-2-2-2-2-2-|-2-2-2-2-2-2-2-2-|-2-2-2-2-2-2-2-2-|-2-2-2-2-2---0-5-|
E |-----------------|-----------------|-----------------|-----------2-----|
    1 & 2 & 3 & 4 &   1 & 2 & 3 & 4 &   1 & 2 & 3 & 4 &   1 & 2 & 3 & 4 &

G |-----------------|-----------------|-----------------|-----------------|
D |-----------------|-----------------|-----------------|-----------------|
A |-2-2-2-2-2-2-2-2-|-2-2-2-2-2-2-2-/-|-7---7---7-^(7)5-|(5)5-5---5-2-5-2-|
E |-----------------|-----------------|-----------------|-----------------|
    1 & 2 & 3 & 4 &   1 & 2 & 3 & 4 &   1 & 2 & 3 & 4 &   1 & 2 & 3 & 4 &


FILL:

G |-----------------|-----------------|
D |-----------------|-----------------|
A |-2-2-2-2-2-2-2-2-|-2-2-2-2-2-2-2-/-|
E |-----------------|-----------------|
    1 & 2 & 3 & 4 &   1 & 2 & 3 & 4 &


PRE-CHORUS:
                                                                    s s
G |-----------------|-----------------|-----------------|-------------------|
D |-9-9-9-9-9-9-9-9-|-9-9-9-9-9---9---|-----------------|---------------7---|
A |-----------------|-----------9---9-|-7-7-7-7-7-7-7-7-|-7-7-7-7-7-7h9---9-|
E |-----------------|-----------------|-----------------|-------------------|
    1 & 2 & 3 & 4 &   1 & 2 & 3 & 4 &   1 & 2 & 3 & 4 &   1 & 2 & 3 &   4 &

G |-----------------|-----------------|-----------------|-----------------|
D |-7-7-7-7-7-7-7-7-|-7-7-7-7-7-7-7---|-9-9-9-9-9-9-9-9-|-9-9-9-9-9-9-----|
A |-----------------|---------------9-|-----------------|------------/14\-|
E |-----------------|-----------------|-----------------|-----------------|
    1 & 2 & 3 & 4 &   1 & 2 & 3 & 4 &   1 & 2 & 3 & 4 &   1 & 2 & 3 & 4 &


CHORUS 2:
                 ( x4 )
G |-----------------|-----------------|
D |-----------------|-----------------|
A |-0-0-5-2---2-5-2-|-0-0-5-2---2-5-2-|
E |-----------------|-----------------|
    1 & 2 & 3 & 4 &   1 & 2 & 3 & 4 &


PRE-BRIDGE:
                                                          a
G |-----------------|-----------------|-----------------|-------------------|
D |-----------------|-----------------|-----------------|-7h9-9-9-9-9-9-9-9/|
A |-2-2-2-2-2-2-2-2-|-2-2-2-2-2-2-2-2-|-2-2-2-2-2-2/7-9-|-------------------|
E |-----------------|-----------------|-----------------|-------------------|
    1 & 2 & 3 & 4 &   1 & 2 & 3 & 4 &   1 & 2 & 3 & 4 &   1   & 2 & 3 & 4 &


BRIDGE:

G |--------------------------------|-------------------------------|
D |-14--------------14--^-(14)--12-|(12)-------------12------12----|
A |--------------------------------|---------------------14--------|
E |--------------------------------|-------------------------------|
    1   &   2   &   3   &   4   &    1   &   2   &   3   &   4   &

                                     a          a
G |/16--16--14------14------14-----|-14h16---14----------------------|
D |-------------16--------------16-|------------16\14-----12---------|
A |--------------------------------|---------------------------------|
E |--------------------------------|---------------------------------|
    1   &   2   &   3   &   4   &    1    &   2   &    3   &   4   &

    a
G |---------------------------------|-------------------------------|
D |-12h14------------14--^-(14)--12-|(12)-------------12------12--\-|
A |---------------------------------|---------------------14--------|
E |---------------------------------|-------------------------------|
    1    &   2   &   3   &   4   &    1   &   2   &   3   &   4   &

                                     s s         s s        s  s       
G |--------------------------------|-------------------------------|
D |--------------------------------|-9h11-11-11--9h11-11-11-11p9---|
A |/4---4---4---4---4---4---4---4-/|----------------------------11-|
E |--------------------------------|-------------------------------|
    1   &   2   &   3   &   4   &    1    &  2   &    3  &  4   &


GUITAR SOLO:
                                                                  s sss
G |-----------------|-----------------|-----------------|------------------|
D |-9-9-9-9-9-9-9-9-|-9-9-9-9-9---9---|-----------------|------------7-7---|
A |-----------------|-----------9---9-|-7-7-7-7-7-7-7-7-|-7-7-7-7-7h9-9--9-|
E |-----------------|-----------------|-----------------|------------------|
    1 & 2 & 3 & 4 &   1 & 2 & 3 & 4 &   1 & 2 & 3 & 4 &   1 & 2 & 3  & 4 &

G |-----------------|-----------------|-----------------|-----------------|
D |-7-7-7-7-7-7-7-7-|-7-7-7-7-7-7-----|-----------------|-9-9-9-7---9-----|
A |-----------------|-------------9-\-|-2-2-2-0---2-2-/-|------------/14\-|
E |-----------------|-----------------|-----------------|-----------------|
    1 & 2 & 3 & 4 &   1 & 2 & 3 & 4 &   1 & 2 & 3 & 4 &   1 & 2 & 3 & 4 &


OUT-CHORUS:
                 ( x3 )
G |-----------------|-----------------||-----------------|-----------------|-----------------|
D |-----------------|-----------------||-----------------|-----------------|-----------------|
A |-0-0-5-2---2-5-2-|-0-0-5-2---2-5-2-||-0-0-5-2---2-5-2-|-0-0-5-2-----0-5-|-----------------|
E |-----------------|-----------------||-----------------|-----------2-----|-7---\-\-r-------|
    1 & 2 & 3 & 4 &   1 & 2 & 3 & 4 &    1 & 2 & 3 & 4 &   1 & 2 & 3 & 4 &   1 & 2 & 3 & 4 &

            
Submit corrections


        Meadow lessons Hard to play? Try these video lessons and learn fast Meadow lessons
        
↑ Back to top | Tablatures and chords for acoustic guitar and electric guitar, ukulele, drums are parodies/interpretations of the original songs. You may use it for private study, scholarship, research or language learning purposes only