Home » S » Shinedown »

Shinedown - I Dare You Chords

Artists:  A B C D E F G H I J K L M N O P Q R S T U V W X Y Z # 

I Dare You Chords

(ver. 3) Click to play this song!
Shinedown
Even though this is under chords i included the main pattern

CHORDS

   E  F#  D  C#m  B  A
[-----2------------------]
[-----2------------------]
[--1--3---7--6----4--2---]
[--2--4---7--6----4--2---]
[--2--4---5--4----2--0---]
[--0--2------------------]

Intro/verse:
[-------------------------------]
[-------------------------------]
[--6-6-6-9-9-9-6--6-6-6-4-4-4-4-]
[--7-7-7-7-7-7-7--4-4-4-4-4-4-4-]
[-------------------------------]
[-------------------------------]
Hello, let me introduce you to
The characters in the show
One says yes, one says no
Decide - which voice in your head you can keep alive

E                        F#              D,C#m,D,B,A
Even in madness, I know you still believe
E                        F#              D, 
Paint me your canvas so I become
C#m,      D,     B,          A
What you could never be
A                  C#m       D                           A
I dare you to tell me to walk through the fire
               C#m      D              B,C#m,D
wear my soul and call me a liar
A                  C#m       D                           A
I dare you to tell me to walk through the fire
C#m      D              B,C#m, 
I dare you to tell me
D
I dare you to

[-------------------------------]
[-------------------------------]
[--6-6-6-9-9-9-6--6-6-6-4-4-4-4-]
[--7-7-7-7-7-7-7--4-4-4-4-4-4-4-]
[-------------------------------]
[-------------------------------]

Hello, are you still chasing
The memories in shadows
Some stay young, some grow old
Come alive, there are thoughts unclear
You can never hide


E                        F#              D,C#m,D,B,A
Even in madness, I know you still believe
E                        F#              D, 
Paint me your canvas so I become
C#m,      D,     B,          A
What you could never be
A                  C#m       D                           A
I dare you to tell me to walk through the fire
               C#m      D              B,C#m,D
wear my soul and call me a liar
A                  C#m       D                           A
I dare you to tell me to walk through the fire
C#m      D              B,C#m, 
I dare you to tell me
D
I dare you to

solo

[----------]
[----------]
[--4-4-4-4-]
[--4-4-4-4-] 
[--2-2-0-2-]
[----------]



[-------------------------------]
[-------------------------------]
[--6-6-6-9-9-9-6--6-6-6-4-4-4-4-]
[--7-7-7-7-7-7-7--4-4-4-4-4-4-4-]
[-------------------------------]
[-------------------------------]
Hello
Hello...
A                  C#m       D                           A
I dare you to tell me to walk through the fire
               C#m      D              B,C#m,D
Brand my soul and call me a liar
A                  C#m       D                           A
I dare you to tell me to walk through the fire
C#m      D              B,C#m, 
I dare you to tell me
D
I dare you to
[-------------------------------]
[-------------------------------]
[--6-6-6-9-9-9-6--6-6-6-4-4-4-4-]
[--7-7-7-7-7-7-7--4-4-4-4-4-4-4-]
[-------------------------------]
[-------------------------------]
Hello...
Hello...
C#m      D              B,C#m, 
I dare you to tell me
D
I dare you to
C#m      D              B,C#m, 
I dare you to tell me
D
I dare you to
            
Submit corrections

↑ Back to top | Tablatures and chords for acoustic guitar and electric guitar, ukulele, drums are parodies/interpretations of the original songs. You may use it for private study, scholarship, research or language learning purposes only