Home » S » Shinedown »

Shinedown - I Dare You Bass

Artists:  A B C D E F G H I J K L M N O P Q R S T U V W X Y Z # 

I Dare You Bass

(ver. 2) Click to play this song!
Shinedown
Intro
G------------------------------------------------------|
D-5---555555555555555555555555555555555555555555555555-|eight notes
A------------------------------------------------------|
D------------------------------------------------------|
Pre-Chorus
G-----------------------------------------------|
D-----------------------------------------------|
A----------0-2----------333-222-333-222-0-0-----|
D-0000-2-0-----22222222---------------------5-5-|

G----------------------------------------|
D----------------------------------------|
A----------0-2----------33333333-0-0-0000|
D-0000-2-0-----22222222------------------|

Chorus
G-----------------------|
D-----------------------|
A----------222-33333333-|
D-55555555--------------|

G-----------------------------------------------------|
D-------------------------------------------------575-|
A----------222-33333333-00000000-222-33333333-5/7-----|
D-55555555--------------------------------------------|

G-----------------------|
D-----------------------|
A----------222-33333333-|
D-55555555--------------|

G-------------------|
D-------------------|
A----------222-3333-|
D-55555555----------|

Verse
G------------------------------------------------------|
D-5---555555555555555555555555555555555555555555555555-|eight notes
A------------------------------------------------------|
D------------------------------------------------------|

Pre-Chorus
G-----------------------------------------------|
D-----------------------------------------------|
A----------0-2----------333-222-333-222-0-0-----|
D-0000-2-0-----22222222---------------------5-5-|

G------------------------------------|
D------------------------------------|
A----------0-2----------33333333-0-0-|
D-0000-2-0-----22222222--------------|

Chorus
G-----------------------|
D-----------------------|
A----------222-33333333-|
D-55555555--------------|

G----------------------------------------------------|
D------------------------------------------------575-|
A----------222-33333333-00000000-222-33333333-5/7----|
D-55555555-------------------------------------------|

G-----------------------|
D-----------------------|
A----------222-33333333-|
D-55555555--------------|

G--------------------------|
D------------5-4-2---------|
A----------2-------5-3-2-0-|
D-55555555-----------------|

Bridge
G---------------------------------------|
D---------------------------------------|
A---------------------------------------|
D-33333333-00000000-33333333-22222222-0-|

Chorus
G-----------------------|
D-----------------------|
A----------222-33333333-|
D-55555555--------------|

G-----------------------------------------------------|
D-------------------------------------------------575-|
A----------222-33333333-00000000-222-33333333-5/7-----|
D-55555555--------------------------------------------|

G-----------------------|
D-----------------------|
A----------222-33333333-|
D-55555555--------------|

G------------|
D------------|
A----------2-|
D-55555555---|

/-slide up
The Song ends with the corus
Listen and play to the song to get the timing right
            
Submit corrections

↑ Back to top | Tablatures and chords for acoustic guitar and electric guitar, ukulele, drums are parodies/interpretations of the original songs. You may use it for private study, scholarship, research or language learning purposes only