Home » S » Shinedown »

Shinedown - I Dare You Tabs

Artists:  A B C D E F G H I J K L M N O P Q R S T U V W X Y Z # 

I Dare You Tabs

(ver. 2) Click to play this song!
Shinedown
there was no tab for this that was standard and i hate tuning down so i
cooked this up for you guys the verse is not perfect but hey it works.

-cb

Intro
e-----------------------------------------------------------------------|
b-----------------------------------------------------------------------|
g-----------------------------------------------------------------------|
d-----------------------------------------------------------------------|
a-----------------------------------------------------------------------|
E---4-4-4-4-4-4-4-4-----------------------------------------------------|
 then  strum the verse
e-----------------------------------------------------------------------|
b-----------------------------------------------------------------------|
g-----------------------------------------------------------------------|
d----------------------6--8-6-5-----------------------------------------|
a----------------------6--6-6-6---repeat however many times-------------|
E----------------------4--4-4-4-----------------------------------------|

pre-chorus

e-------------------------------------------------------------------------|
b-------------------------------------------------------------------------|
g--8--------6--5-6-5-6-5--------------------------------------------------|
d--8---3----6--5-6-5-6-5-----X2-------------------------------------------|
a--6---3----4--3-4-3-4-3--------------------------------------------------|
E------1------------------------------------------------------------------|

chorus

e-----------------------------------------------------------------------|
b-----------------------------------------------------------------------|
g----5--6------------5--6--8--6-----------------------------------------|
d-6--5--6---------6--5--6--8--6-----X2----------------------------------|
a-6--3--4---------6--3--4--6--4-----------------------------------------|
E-4---------------4-----------------------------------------------------|

solo is very easy but cool


e-----------------------------------------------------------------------|
b-----------------------------------------------------------------------|
g--------------------------13--13---15-15-17-17-18-18-17-17-15-15-17-17-|
d--13--13--15--15-17--17------------------------------------------------|
a-----------------------------------------------------------------------|
E-----------------------------------------------------------------------|

e-----------------------------------------------------------------------|
b-----------------------------------------------------------------------|
g-18-18-17--17-15h17-15------------------------------------13-13-15-15--|
d-------------------------18-18-17-------13-13-15-15-17-17--------------|
a-----------------------------------------------------------------------|
E-----------------------------------------------------------------------|

e-----------------------------------------------------------------------|
b-----------------------------------------------------------------------|
g--17-17-18-18-20b------------------------------------------------------|
d-----------------------------------------------------------------------|
a-----------------------------------------------------------------------|
E-----------------------------------------------------------------------|

ok maybe its not perfect but its almost
            
Submit corrections

↑ Back to top | Tablatures and chords for acoustic guitar and electric guitar, ukulele, drums are parodies/interpretations of the original songs. You may use it for private study, scholarship, research or language learning purposes only