» » »

Shadows - Wonderful Land Tabs

Artists:  A B C D E F G H I J K L M N O P Q R S T U V W X Y Z # 

Wonderful Land Tabs

(ver. 2) Click to play this song!
Shadows
 Rating:
4/5 (4 votes)

 Wonderful Land lessons Tabs too difficult? Try these video lessons and learn fast
 
                The bends (b after note) are  whammy bar bends.

-15--13--12--------------------------------15--13--12-------------------------
-------------15--13--15--------------------------------15--13--15-------------
-------------------------0-----------------------------------------0----------
----------------------------3--2--0-----0-----------------------------3--2----
-------------------------------------3----------------------------------------
                                                                              




--------|---------------------------------------------------------------------
--------|-------------------------------------------------5--6--6--5----------
--------|-------------------------------5--5--------5--7--------------7--5----
-0-----0|-5-----5--7--7--4-----7-----7--------5-------------------------------
----3---|----5--------------5-----8--------------7----------------------------
--------|---------------------------------------------------------------------
                                                                              

----------------------------------5--5----------------------------------------
-------------5-----------5--------------8-----6b------------------------------
-7--7--7--7-----5-----------5--------------7-----5--------------4-------------
-------------------7--5--------5--------------------7--5-----5-----5-----5----
----------------------------------------------------------7-----------7-------
                                                                              

-4-----------4--------------------------------------5--5--5--5--------5--7----
----5-----5-----5-----5--7--7--7--7--4-----7-----7--------------5-------------
-------7-----------5--------------------5-----8--------------------7----------
                                                                              
-----------------------------|-8x--7x------5x--8x--5x------------------8x-----
-5--6--6--5------------------|---------8x--------------8x--5x-----------------
-------------7--5--7--7--7--7|---------------------------------7x--5x---------
-----------------------------|------------------------------------------------
-----------------------------|------------------------------------------------
-----------------------------|------------------------------------------------
                                                                              
-7x------5x--8x--5x------12x--10x------------10x---------------|--------------
-----8x--------------8x------------12x--13x-------13x--12x--10x|----8---------
                                                                              

-4--------4--------4--------------------------------------5--5--5--5----------
---5---5--------5-----5-----5--7--7--7--7--4-----7-----7--------------5-------
-----7-------7-----------5--------------------5-----8--------------------7----
                                                                              

-----------------------------------|-8x--7x------5x--7x--5x-------------------
-------5--6--6--5------------------|---------8x--------------8x--5x-----------
-5--7--------------7--5--7--7--7--7|---------------------------------7x--5x---
-----------------------------------|------------------------------------------
-----------------------------------|------------------------------------------
-----------------------------------|------------------------------------------
                                                                              

-8x--7x------5x--8x--5x------12x--10x------------10x--------------------------
---------8x--------------8x------------12x--13x-------13x--12x--10x-----8-----
                                                                              

-----7-----------7|-15--13--12--------------------------------15--13--12------
--8-----8b----8---|-------------15--13--15--------------------------------15--
-----------9------|-------------------------0---------------------------------
------------------|----------------------------3--2--0-----0------------------
------------------|-------------------------------------3---------------------
------------------|-----------------------------------------------------------
                        



 slow these last 6 notes down-saves fading out        
----------------------------15--13--12---------------|------------------------
--13--15--------------------------------15--13--15b--|------------------------
----------0-------------------------------------16b--|------------------------
-------------3--2--0-----0---------------------------|------------------------
----------------------3------------------------------|------------------------
-----------------------------------------------------|------------------------
            
Submit corrections


        Wonderful Land lessons Hard to play? Try these video lessons and learn fast Wonderful Land lessons
        
↑ Back to top | Tablatures and chords for acoustic guitar and electric guitar, ukulele, drums are parodies/interpretations of the original songs. You may use it for private study, scholarship, research or language learning purposes only