» » »

Shadows - Sleepwalk Tabs

Artists:  A B C D E F G H I J K L M N O P Q R S T U V W X Y Z # 

Sleepwalk Tabs

(ver. 1) Click to play this song!
Shadows
 Rating:
3.8/5 (5 votes)

 Sleepwalk lessons Tabs too difficult? Try these video lessons and learn fast
 
                -|--------8--12/15-------15--------------88--------------------8--------------
-|-8--10--------------------------8--10-----878-----8-9-8--------878----8-9---
-|------------------12-----12--------------------10-------10-9-------10-------
-|----------------------------------------------------------------------------
-|----------------------------------------------------------------------------
-|----------------------------------------------------------------------------
                                            Wd                   Wd           

--------------------------------------15------15---|---------88---------------
-8----------8--------------------------------------|--8--10-----878-----8-9---
---10-9--7/9--9-------555-4---------------12----12-|-----------------10-------
----------------10-7--666-5---55-------------------|--------------------------
----------------------------7----------------------|--------------------------
---------------------------------------------------|--------------------------
                                                                 Wd           

---------8------------------------------------------------------8--88---------
-8---------878----8-9-8----------8----------------------88-9/10---------------
---10-9--------10-------10-9--7/9--9------555-4------55-----------------------
-------------------------------------10-7-666-5--5-7--------------------------
           Wd                                                                 

-10b11--8---8-8----------------8-8-10b11r--8---8-10b11r-8---------------------
---------------8-------------10--------------9------------8-----8-10b11r------
---------11---10--8----8----10------------------------------789----------89---
--------------------10--10----------------------------------------------------
                                                                              

--------------17--15/17-15-13-\-8---8----88-10b11r--333/-555\-3-|---------88--
-8--8-------13--------------------9-----------------333/-555\-3-|--8--10--88--
--9--9----14--------------------------10------------444/-666\-4-|-------------
--------15------------------------------------------555/-777\-5-|-------------
                                                                              

-------------------8-----------------------------------------------15----15---
-888--6-8-9--8-6-5-8-888-6-8-9--8-6-5------8----------------------------------
-999--7-9-10-9-7-5---999-7-9-10-9-7-5--7/9---9------555-4-------------12------
-----------------------------------------------10-7-666-5----55---------------
-----------------------------------------------------------7------------------
                                                                              



----|-------88-8-8--8-8--8----------------8-8-8--8-8--8-----------------------
----|-8--10----8*10-8*10-8-8--8-9--8-8--8-8-8*10-8*10-8-8--8-9--8-8--8-----8--
-12-|----------------------10---10---10-9---------------10---10---10-9-7/9----
----|-------------------------------------------------------------------------
----|-------------------------------------------------------------------------
----|-------------------------------------------------------------------------
                                                                              

-------------1-4/8----8-------8---8-7---------------------8--|----------------
------------1----------8----10--------10-8--------------8----|----------------
-9---------1--------9----9-10--------------10-9-7-----9------|----------------
---10-7---3----------------------------------------10--------|----------------
---------3---------------------------------------------------|----------------
-------------------------------------------------------------|----------------
                                |played by the bass|                          



I have added :

Wd	Whammy Bar down
Wu	Whammy Bar up
            
Submit corrections


        Sleepwalk lessons Hard to play? Try these video lessons and learn fast Sleepwalk lessons
        
↑ Back to top | Tablatures and chords for acoustic guitar and electric guitar, ukulele, drums are parodies/interpretations of the original songs. You may use it for private study, scholarship, research or language learning purposes only