» » »

Shadows - Wonderful Land Tabs

Artists:  A B C D E F G H I J K L M N O P Q R S T U V W X Y Z # 

Wonderful Land Tabs

(ver. 3) Click to play this song!
Shadows
 Rating:
4.3/5 (18 votes)

 Wonderful Land lessons Tabs too difficult? Try these video lessons and learn fast
 
                    1.                                            2.    
e|---15--13-12-----------|---15--13-12-----------|-----------------------------------|
B|-------------15-13—15--|-------------15-13—15--|-----------------------------------|
G|-----------------------|-----------------------|-----------------------------------|
D|-----------------------|-----------------------|--5---5-7-7-4-----7---7-10-10------|
A|-----------------------|-----------------------|----5---------5-----8---------10-7-|
E|-----------------------|-----------------------|-----------------------------------|

                              3.                                   4.
e|---------------------------|---------------5--5-----------------|----------------------------|
B|-----5-6-6-5---------------|-5-------5-----------8-----6--------|----------------------------|
G|-5-7---------7-5-7—--7-7-7-|---5-------5------------7-----5-----|----------------------------|
D|---------------------------|-----7-5-----5------------------6-5-|---5-9-5----5-9-5-----5-9-5-|
A|---------------------------|------------------------------------|-7--------7--------7--------|
E|---------------------------|------------------------------------|----------------------------|

  2.                                                               
e|---------------------------------------------------------------------|
B|-----------------------------------------------5-6-6-5---------------|
G|-------------------------------------------5-7---------7-5-7—--7-7-7-|
D|---5-7-7-7-7-4-----7---7-10-10-10-10---------------------------------|
A|-5-------------5-----8---------------10-7----------------------------|
E|---------------------------------------------------------------------|

  5. P.M.---------------------------------------------|        4.
e|-8-7---5-8-5---------8-7---5-8-5----12-10-7-8-10-8-7-10---8-|----------------------------|
B|-----8-------8-5---------8-------8----------------------9---|----------------------------|
G|-----------------7-5----------------------------------------|----------------------------|
D|------------------------------------------------------------|---5-9-5----5-9-5-----5-9-5-|
A|------------------------------------------------------------|-7--------7--------7--------|
E|------------------------------------------------------------|----------------------------|

  2.                                                               
e|---------------------------------------------------------------------|
B|-----------------------------------------------5-6-6-5---------------|
G|-------------------------------------------5-7---------7-5-7—--7-7-7-|
D|---5-7-7-7-7-4-----7---7-10-10-10-10---------------------------------|
A|-5-------------5-----8---------------10-7----------------------------|
E|---------------------------------------------------------------------|

  5. P.M.--------------------------------------------|         6.
e|-8-7---5-8-5---------8-7---5-8-5---12-10-7-8-10-8-7-10---8--|-----7---------7---|
B|-----8-------8-5---------8-------8---------------------9----|---8---8-----8---8-|
G|-----------------7-5----------------------------------------|-9---------9-------|
D|------------------------------------------------------------|-------------------|
A|------------------------------------------------------------|-------------------|
E|------------------------------------------------------------|-------------------|

  1.
e|15--13-12-----------|--15--13-12----------|                                         
B|-----------15-13—15-|------------15-13—15-| FADE OUT
G|--------------------|---------------------|                      
D|--------------------|---------------------|
A|--------------------|---------------------|
E|--------------------|---------------------|            
Submit corrections


        Wonderful Land lessons Hard to play? Try these video lessons and learn fast Wonderful Land lessons
        
↑ Back to top | Tablatures and chords for acoustic guitar and electric guitar, ukulele, drums are parodies/interpretations of the original songs. You may use it for private study, scholarship, research or language learning purposes only