» » »

Shadows - Peace Pipe Tabs

Artists:  A B C D E F G H I J K L M N O P Q R S T U V W X Y Z # 

Peace Pipe Tabs

(ver. 1) Click to play this song!
Shadows
 Rating:
4/5 (4 votes)

 Peace Pipe lessons Tabs too difficult? Try these video lessons and learn fast
 
                -17---16---17---5---4---5---------------------------9---12---9--------12------
----------------------------2---1---2-----------------------------------------
----------------------------------------0-------0-----------------------------
--------------------------------------------4---------------------------------
                                                                              

------9-----------------------------------------------------------------------
-10-------10---7---10---------------12/--14\--12-----------10/--12\--10-------
------------------------7---9---9------------------7---7------------------9---
                                                                              

-------------|----------------------------------------------------------------
-12---10-----|-----10---8---10---8--------------------------------------------
-----------9-|-9---------------------9---7--------7------------5--------------
-------------|-------------------------------10-------9------------7----------
-------------|--------------------------------------------10-----------8------
-------------|----------------------------------------------------------------
                                                                              

-----------------|-9---12---9--------12-------------9-------------------------
-----------------|--------------12--------10---10-------10---7---10-----------
-4--4--4---------|----------------------------------------------------7-------
-----------6-----|------------------------------------------------------------
---------------7-|------------------------------------------------------------
-----------------|------------------------------------------------------------
                                                                              

-------------------------------------------------------------|----------------
---------12/--14\--12----------10/--12\--10-------12---10----|----------------
-9---9-----------------7---7------------------9-------------9|----------------
-------------------------------------------------------------|----------------
-------------------------------------------------------------|----------------
-------------------------------------------------------------|----------------
                                                                              

------14x--12x--10x-------14x--12x--10x------14x--12x--10x------14x--12x--10x-
-11------------------11x-----------------10-----------------10x---------------
                                                                              

-----------------------------------------|------------------------------------
-----14x--12x--10x------14x--12x--9x--10x|------------------------------------
--9-----------------9x-------------------|------------------------------------
-----------------------------------------|-----0---0---0---0-------0---4------
-----------------------------------------|-0-------------------4--------------
-----------------------------------------|------------------------------------
                                                                              

-------------------------------------------------------------0-------------|--
-----0---0---0---0-------0---4--------2---2---2---2---1---2------2-------0-|--
-0-------------------4------------0----------------------------------4-----|--
                                                                              

-9---12---9--------12-------------9-------------------------------------------
--------------12--------10---10-------10---7---10----------------12/--14\-\12-
----------------------------------------------------7---9---9-----------------
                                                                              

----------------------------------------|-------------------------------------
----------10/--12\--10-------12---10----|----14x--12x--10x-------14x--12x-10x-
--7---7------------------9-------------9|11-----------------11x---------------
----------------------------------------|-------------------------------------
----------------------------------------|-------------------------------------
----------------------------------------|-------------------------------------
                                                                              

------14x--12x--10x-------14x--12x--10x-----14x--12x--10x-----14x-12x-9x-10x--
--10-----------------10x-----------------9-----------------9x-----------------
                                                                              

-------------5---4---5---17---16---17-------14--------------------------------
-------------------------------------------------14---------------------------
-2---1---2--------------------------------------------------------------------
----------------------------------------0-------------------------------------
            
Submit corrections


        Peace Pipe lessons Hard to play? Try these video lessons and learn fast Peace Pipe lessons
        
↑ Back to top | Tablatures and chords for acoustic guitar and electric guitar, ukulele, drums are parodies/interpretations of the original songs. You may use it for private study, scholarship, research or language learning purposes only