» » »

Shadows - Blue Star Tabs

Artists:  A B C D E F G H I J K L M N O P Q R S T U V W X Y Z # 

Blue Star Tabs

(ver. 1) Click to play this song!
Shadows
 Rating:
4/5 (4 votes)

 Blue Star lessons Tabs too difficult? Try these video lessons and learn fast
 
                ---9------5---|------------------------2---|---5-4-2-4-2---2-------2----------
-----10-----7-|--2-------------2---2-3---5-|-5-----------5---5-3-5---5-3-2----
-9------6-----|----4-2-1---1-2---4---------|-------------------------------4--
--------------|2---------4-----------------|----------------------------------
--------------|----------------------------|----------------------------------
--------------|----------------------------|----------------------------------
 intro 2 times                                                                

-----------|-------------------------2---|---5-4-2-4-2---2-------2-------2----
---2-------|---2-------------2---2-3---5-|-5-----------5---5-3-5---5-3-2------
-4---2-4---|-----4-2-1---1-2---4---------|------------------------------------
---------2-|-2---------4-----------------|------------------------------------
-----------|-----------------------------|------------------------------------
-----------|-----------------------------|------------------------------------
                                                                              

-2/5-----|-------------|---9-----------------9----9-10-14-12-|-12-17-16-14----
-----6---|-------------|-----12-10-9----9-10---12------------|----------------
-------7-|-------------|-9-----------11----------------------|----------------
---------|-------------|-------------------------------------|----------------
---------|-------------|-------------------------------------|----------------
---------|-------------|-------------------------------------|----------------
          repeat intro                                                        

-16-14-12-14-12----12-14-12------------------------|---9-----------------9----
----------------15----------15-14-12-12-14-10-12---|-----12-10-9----9-10------
-------------------------------------------------9-|-9-----------11-----------
---------------------------------------------------|--------------------------
---------------------------------------------------|--------------------------
---------------------------------------------------|--------------------------
                                                                              

----9-10-14-12-|-12-17-16-14-16-14----14----------14----------14-14-17-17-21|-
-12------------|-------------------17----17-15-17----17-15-14---------------|-
---------------|------------------------------------------------------------|-
---------------|------------------------------------------------------------|-
---------------|------------------------------------------------------------|-
---------------|------------------------------------------------------------|-
                                                                              

----12------8----|-------------------------5--|---8-7-5-7-5---5-------5-------
-------13--------|---5-------------5---5-6---8|-8-----------8---8-6-8---8-6---
-12-------9---10-|-----7-5-4---4-5---7--------|-------------------------------
-----------------|-5---------7----------------|-------------------------------
-----------------|----------------------------|-------------------------------
-----------------|----------------------------|-------------------------------
 2 times(key change)                                                          

---5-5-5-8-8-|----12------8----|----------------12---|------------------------
-5-----------|-------13-----10-|-10-10-12-12-------13|------------------------
-------------|-12-------9------|-------------12------|------------------------
-------------|-----------------|---------------------|------------------------
-------------|-----------------|---------------------|------------------------
-------------|-----------------|---------------------|------------------------
                 2 times
            
Submit corrections


        Blue Star lessons Hard to play? Try these video lessons and learn fast Blue Star lessons
        
↑ Back to top | Tablatures and chords for acoustic guitar and electric guitar, ukulele, drums are parodies/interpretations of the original songs. You may use it for private study, scholarship, research or language learning purposes only