» » »

Shadows - Atlantis Tabs

Artists:  A B C D E F G H I J K L M N O P Q R S T U V W X Y Z # 

Atlantis Tabs

(ver. 2) Click to play this song!
Shadows
 Rating:
4/5 (4 votes)

 Atlantis lessons Tabs too difficult? Try these video lessons and learn fast
 
                INTRO: PLAY MUTED, USE NECK PICKUP
VERSE: USE BRIDGE PICKUP

-|-----------------------------15--12-----|---------------------13---------|--
-|---------13--13--13--13--13----------13-|--------------------------------|--
-|-14--15---------------------------------|-15--15--15--15--15----------12-|--
-|----------------------------------------|-------------------------15-----|--
-|----------------------------------------|--------------------------------|--
-|----------------------------------------|--------------------------------|--
                                                                              

-|----------------|-----------------------------15--12-----|------------------
-|----------------|---------13--13--13--13--13----------13-|------------------
-|-12--15--14--12-|-14--15---------------------------------|-15--15--15--15---
-|----------------|----------------------------------------|------------------
-|----------------|----------------------------------------|------------------
-|----------------|----------------------------------------|------------------
                                                                              

-----13---------|-------------------------------------------------------------
----------------|-------------------------------------------------------------
-15----------12-|-------------------------------------------------------------
---------15-----|-------------------------------------------------------------
----------------|-------------------------------------------------------------
----------------|-------------------------------------------------------------
  VERSE 1                                                                     

-|------------------------|---------------------|------------|---------|------
-|------------------------|----------------3----|------------|---------|------
-|----------------2--5----|-3/-4--3--3--5-----5-|-2----------|-2-------|------
-|-------2--3--5--------5-|---------------------|----3-----5-|----2--4-|------
-|-3--5-------------------|---------------------|-------3----|---------|------
-|------------------------|---------------------|------------|---------|------
                                                                              

-|---------|------------------------|------------------------|----------------
-|-3-------|-5--3-------------------|-3----------------------|----------------
-|----4----|-------5--5--4--2-------|----5--3--3--2----------|-2-h3-----------
-|-------5-|-------------------5--3-|----------------5--3--5-|-------5--3--5--
-|---------|------------------------|------------------------|----------------
-|---------|------------------------|------------------------|----------------
  VERSE 2                                                                     

-|------------------------|---------------------|------------|---------|------
-|------------------------|----------------3----|------------|---------|------
-|----------------2--5----|-3/-4--3--3--5-----5-|-2----------|-2-------|------
-|-------2--3--5--------5-|---------------------|----3-----5-|----2--4-|------
-|-3--5-------------------|---------------------|-------3----|---------|------
-|------------------------|---------------------|------------|---------|------
                                                                              

-|---------|------------------------|------------------------|----------------
-|-3-------|-5--3-------------------|-3----------------------|----------------
-|----4----|-------5--5--4--2-------|----5--3--3--2----------|----------------
-|-------5-|-------------------5--3-|----------------5--3--5-|----------------
-|---------|------------------------|------------------------|----------------
-|---------|------------------------|------------------------|----------------
  INTRO                                                                       

-|-----------------------------15--12-----|---------------------13---------|--
-|---------13--13--13--13--13----------13-|--------------------------------|--
-|-14--15---------------------------------|-15--15--15--15--15----------12-|--
-|----------------------------------------|-------------------------15-----|--
-|----------------------------------------|--------------------------------|--
-|----------------------------------------|--------------------------------|--
                                                                              

-|----------------|-----------------------------15--12-----|------------------
-|----------------|---------13--13--13--13--13----------13-|------------------
-|-12--15--14--12-|-14--15---------------------------------|-15--15--15--15---
-|----------------|----------------------------------------|------------------
-|----------------|----------------------------------------|------------------
-|----------------|----------------------------------------|------------------
                                                                              

-----13---------|-------------------------------------------------------------
----------------|-------------------------------------------------------------
-15----------12-|-------------------------------------------------------------
---------15-----|-------------------------------------------------------------
----------------|-------------------------------------------------------------
----------------|-------------------------------------------------------------
  VERSE 3                                                                     

-|-------------------------------|---------------------10-----|---------------
-|--------------------10--13-----|-11/-13--11--11--13------13-|-10------------
-|---------9--10--12----------12-|----------------------------|-----10--------
-|-10--12------------------------|----------------------------|---------10----
-|-------------------------------|----------------------------|---------------
-|-------------------------------|----------------------------|---------------
                            Muted                            Muted            

----|-----------|-10--7----|-12--10-------------------------|-10--------------
----|-10--------|--------8-|---------13--13--12--10---------|-----13--11--11--
-12-|-----9--11-|----------|-------------------------12--10-|-----------------
----|-----------|----------|--------------------------------|-----------------
----|-----------|----------|--------------------------------|-----------------
----|-----------|----------|--------------------------------|-----------------
 Muted                                                                        

----------------|-------------------------------------------------------------
-10-------------|-------------------------------------------------------------
-----12--10--12-|-------------------------------------------------------------
----------------|-------------------------------------------------------------
----------------|-------------------------------------------------------------
----------------|-------------------------------------------------------------
  INTRO                                                                       

-|-----------------------------15--12-----|---------------------13---------|--
-|---------13--13--13--13--13----------13-|--------------------------------|--
-|-14--15---------------------------------|-15--15--15--15--15----------12-|--
-|----------------------------------------|-------------------------15-----|--
-|----------------------------------------|--------------------------------|--
-|----------------------------------------|--------------------------------|--
                                                                              

-|----------------|-----------------------------15--12-----|------------------
-|----------------|---------13--13--13--13--13----------13-|------------------
-|-12--15--14--12-|-14--15---------------------------------|-15--15--15--15---
-|----------------|----------------------------------------|------------------
-|----------------|----------------------------------------|------------------
-|----------------|----------------------------------------|------------------
              ENDING                                                          

-----13-----|---------------------|------------------|------------------------
------------|-------4--6/-8--6--6-|-------6--6-------|-------4--6/-10--10-----
-15---------|----3----------------|-5--5--------5--5-|----3-------------------
---------15-|-5-------------------|------------------|-5----------------------
------------|---------------------|------------------|------------------------
------------|---------------------|------------------|------------------------
                                                                              

------------------------------------------|-----------------------------------
-8--8/-10--10--8--8/-10--10--8--8/-10--10-|-----------------------------------
------------------------------------------|-----------------------------------
------------------------------------------|-----------------------------------
------------------------------------------|-----------------------------------
------------------------------------------|-----------------------------------
  ALTERNATIVE INTRO                                                           

-|-----------------------------15--12-----|---------------------13---------|--
-|---------13--13--13--13--13----------13-|-11--11--11--11--11-------------|--
-|-14--15---------------------------------|-------------------------10--12-|--
-|----------------------------------------|--------------------------------|--
-|----------------------------------------|--------------------------------|--
-|----------------------------------------|--------------------------------|--
                                                                              

-|----------------|-----------------------------15--12-----|------------------
-|-----11--10-----|---------13--13--13--13--13----------13-|-11--11--11--11---
-|-12----------12-|-14--15---------------------------------|------------------
-|----------------|----------------------------------------|------------------
-|----------------|----------------------------------------|------------------
-|----------------|----------------------------------------|------------------
                                                                              

-----13---------|-------------------------------------------------------------
-11-------------|-------------------------------------------------------------
---------10--12-|-------------------------------------------------------------
----------------|-------------------------------------------------------------
----------------|-------------------------------------------------------------
----------------|-------------------------------------------------------------
            
Submit corrections


        Atlantis lessons Hard to play? Try these video lessons and learn fast Atlantis lessons
        
↑ Back to top | Tablatures and chords for acoustic guitar and electric guitar, ukulele, drums are parodies/interpretations of the original songs. You may use it for private study, scholarship, research or language learning purposes only