» » »

Shadows - Atlantis Tabs

Artists:  A B C D E F G H I J K L M N O P Q R S T U V W X Y Z # 

Atlantis Tabs

(ver. 3) Click to play this song!
Shadows
 Rating:
4.4/5 (5 votes)

 Atlantis lessons Tabs too difficult? Try these video lessons and learn fast
 
                [Intro]
{Palm Muted} x2
e||--------------------------15--12----------------13--------------------||
B||----------13-13--13-13-13---------13--11-11--11------------11--10-----||
G||--14--15-------------------------------------------10-12~---------12--||
D||----------------------------------------------------------------------||
A||----------------------------------------------------------------------||
E||----------------------------------------------------------------------||

e|-------------------------|----------------------------------|------------------------|
B|--------------------1----|---------------3------------------|---------------3--------|
G|---------------0--2---0--|--3/5\3~-3--5-----5--2------------|---2--------------4-----|
D|-----0--2--3~------------|------------------------3------5--|------2--4-----------5~-|
A|--3~---------------------|---------------------------3------|------------------------|
E|-------------------------|----------------------------------|------------------------|

e|------------------------|------------------------------------|
B|--5--3------------------|--3---------------------------------|
G|--------5-5--4--2-------|-----5--3-3-2-0----0~--0h2p0-----0--|
D|-------------------5--3-|-----------------3------------3-----|
A|------------------------|------------------------------------|
E|------------------------|------------------------------------|

e|---------------------------|-----------------------------|-----------------------|
b|--------------------1------|--------------3--------------|--------------3--------|
g|---------------0--2---2p0--|--3/5\3~-3--5----2-----------|---2-------------4-----|
D|-----0--2--3~--------------|--------------------3------5-|------2--4----------5~-|
A|--3~-----------------------|------------------------3----|-----------------------|
E|---------------------------|-----------------------------|-----------------------|


e|------------------------|-----------------------|
B|--5--3------------------|--3--------------------|
G|--------5-5--4--2-------|-----5--3-3-2-0----0~--|
D|-------------------5-3--|-----------------3-----|
A|------------------------|-----------------------|
E|------------------------|-----------------------|

Repeat Intro x2

e|---------------|------5---8-----|-------------------10-----|----------------|--5--------10--7--------|
B|---------5--6~~|---8---------8~~|--11h13p11--11--13----13--|--10------------|----5----7~--------8~---|
G|--5~---7-------|----------------|--------------------------|-----10-----12~~|------------------------|
D|---------------|----------------|--------------------------|--------10------|------------------------|
A|---------------|----------------|--------------------------|----------------|------------------------|
E|---------------|----------------|--------------------------|----------------|------------------------|

e|--12--10-----------------------------------------------------|
B|---------13--13--12---------------15--13—11—11---------------|
G|---------------------14--12--10~---------------14—12—10--12--|
D|-------------------------------------------------------------|
A|-------------------------------------------------------------|
E|-------------------------------------------------------------|

Repeat Intro x2

[Outro]

e|--------------------|---------------|--------------|--------------------|
b|------------4---6/8-|--6--6---------|--6--6--------|-----------4---6/8--|
g|--------3-----------|---------5--5--|--------5--5--|-------3------------|
D|--3/5---------------|---------------|--------------|--3/5---------------|
A|--------------------|---------------|--------------|--------------------|
E|--------------------|---------------|--------------|--------------------|

e|--8---8---6-6--|--8---8---6-6--|--8---8---6-6--|--8~~~~-----|
b|--10--10--8-8--|--10--10--8-8--|--10--10--8-8—-|--10~~~-----|
g|---------------|---------------|---------------|------------|
D|---------------|---------------|---------------|------------|
A|---------------|---------------|---------------|------------|
E|---------------|---------------|---------------|------------|
            
Submit corrections


        Atlantis lessons Hard to play? Try these video lessons and learn fast Atlantis lessons
        
↑ Back to top | Tablatures and chords for acoustic guitar and electric guitar, ukulele, drums are parodies/interpretations of the original songs. You may use it for private study, scholarship, research or language learning purposes only