» » »

Shadows - Apache Tabs

Artists:  A B C D E F G H I J K L M N O P Q R S T U V W X Y Z # 

Apache Tabs

(ver. 3) Click to play this song!
Shadows
 Rating:
3.7/5 (6 votes)

 Apache lessons Tabs too difficult? Try these video lessons and learn fast
 
                


HI,ENJOY! THE CHORDS ARE ABOVE THE NOTES!!

AM      D          AM       D        AM       D        DM       G7
------------5-----|-----------------|-----------------|-----------------|-----
--------------8-5-|-----------------|-----------------|---3---3---------|-----
---5-7b---5-------|---2---2---------|---2---2---------|-2---2---4-2-0-2-|-----
-7------7---------|-2---2---4-2-0-2-|-2---2---4-2-0-2-|-----------------|-----
------------------|-----------------|-----------------|-----------------|-----
------------------|-----------------|-----------------|-----------------|-----
 INTRO X2                                                                                                      F                                                 AM       
-----------------|-----------------------------------------------------|------
-----------------|-----------------------------------------------------|------
---2---2---------|-----------------------------------------------------|------
-2---2---4-2-0-2-|----3x3x3x3x----3x3x3x3x----3x3x3x3x----3x3x3x3x-2---|------
-----------------|-3x----------3x----------3x----------3x------------0-|------
-----------------|-----------------------------------------------------|------
                 | PART A X2 WITH A TAPPED DELAY                       
F     G7        AM   F      G7   C   C7              F     G7          AM
--------------------|---------------|-----3-----6---|---------------------|---
-----------3-5-3----|-----------3---|-3/5---5/8---8-|-----------3-5-3-----|---
---2-5-4-5-------5-2|---2-5-4-5-----|---------------|---2-5-4-5-------5-2-|---
-3------------------|-3-----------5-|---------------|-3-------------------|---
--------------------|---------------|---------------|---------------------|---
--------------------|---------------|---------------|---------------------|---
                                                                              
                                                                                                           INRO
--------------------|-------------------------------------------|-------------
--------------------|-------------------------------------------|-------------
--------------------|-------------------------------------------|---7---7-----
--------------------|----7x7x7x7x----7x------------------7x-----|-7---7---9---
--------------------|-7x---------7x7x--7x9x9x9x9x7x7x5x5x--7x7x-|-------------
--------------------|-------------------------------------------|-------------
 PLAY PART A HERE X2    PLAY X2 WITH A TAPPED DELAY                       
                                                       AM     F    G7 
---------|------------------------------------------|-----5-|-----------------
---------|------------------------------------------|----5--|-----------3-5---
-----7---|------------------------------------------|---5---|---2-5-4-5-------
-7-5---7-|---7x7x7x7x----7x------------------7x-----|--7----|-3---------------
---------|-7x--------7x7x--7x9x9x9x9x7x7x5x5x--7x7x-|-7-----|-----------------
---------|------------------------------------------|-------|-----------------
         | TAPPED DELAY                             |                         
 AM     F     G7       C   C7               F    G7         AM  
-------|--------------|--------------------|--------------------|-----------|-
-3-----|-----------3--|--------------------|----------3-5-3-----|-----------|-
---5-2-|---2-5-4-5----|--------------------|--2-5-4-5-------5-2-|---3x3x3x3x|-
-------|-3-----------5|5x5x6x5x6x5x6x5x6x5x|3-------------------|-3x--------|-
-------|--------------|--------------------|--------------------|-----------|-
-------|--------------|--------------------|--------------------|-----------|-
                                                                |3 TIMES    | 
      F      AM      C       F       AM
-----|----------------------------------|-------------------------------------
-----|----------------------------------|-------------------------------------
-2---|----------------------------------|-------------------------------------
---0-|----------------------------------|-------------------------------------
-----|------------------------8x8x8x8x7-|-------------------------------------
-----|1x1x1x1/5x5x5x5/8x8x8x8x----------|-------------------------------------
     |                                   REPEAT INTRO AND FADE 

ENJOY!! RATE IT GOOD
            
Submit corrections


        Apache lessons Hard to play? Try these video lessons and learn fast Apache lessons
        
↑ Back to top | Tablatures and chords for acoustic guitar and electric guitar, ukulele, drums are parodies/interpretations of the original songs. You may use it for private study, scholarship, research or language learning purposes only