» » »

Shadows - Apache Tabs

Artists:  A B C D E F G H I J K L M N O P Q R S T U V W X Y Z # 

Apache Tabs

(ver. 1) Click to play this song!
Shadows
 Rating:
3.5/5 (41 vote)

 Apache lessons Tabs too difficult? Try these video lessons and learn fast
 
                |--------------------------------------
|------------10-8---------------10-8---
|---5-7b---5------9----5-7b---5------9-
|-7------7-----------7------7----------
|--------------------------------------
|--------------------------------------


|---------------------------------------------------------------------
|---------------------------------------------------------------------
|-------------------------------------7---7-4-------------------------
|---7---7-4----------7---7-4--------7---7-----7-5-7----7---7-4--------
|-7---7-----7-5-7--7---7-----7-5-7-------------------7---7-----7-5-7--
|---------------------------------------------------------------------


|-----------------------------------------------------------
|-----------------------------------------------------------
|-----------------------------------------------------------
|-----------------------------------------------------------
|-5-888-5-888-5-888-5-888-7----5-888-5-888-5-888-5-888-7----
|---------------------------5----------------------------5--

|-------------------------------------------------------------------------
|----------------------------------------8---10b------5-4-5-7-7/9-7-5-----
|-----5-4-5-7-7/9-7-5--------5-4-5-7-7/9---9--------7-----------------7---
|---7-----------------7----7----------------------7-----------------------
|-7----------------------7------------------------------------------------
|-------------------------------------------------------------------------


|-----------------------------------------------------------
|-----------------------------------------------------------
|-----------------------------------------------------------
|-----------------------------------------------------------
|-5-888-5-888-5-888-5-888-7----5-888-5-888-5-888-5-888-7----
|---------------------------5----------------------------5--



|--------------------------------------------------------------------------
|--------------------------------------------------------------------------
|-------------------------------------------------------7-77---7--4-44-4-4-
|---7-77---7-4-44-4-4-7------7-77---7---4-44-4-4---7--7------7-------------
|-7------7--------------7--7------7--------------7-------------------------
|--------------------------------------------------------------------------

|-----
|-----
|-7---
|---7-
|-----
|-----



|--------------------------
|--------------------------
|---7-77---7-4-44-4-4-7----
|-7------7--------------7--
|--------------------------
|--------------------------

|------------------------------------------------------------------------
|------------------------------------------------------------------------
|------------------------------------------------------------------------
|------------------------------------------------------------------------
|-5-888-5-888-5-888-5-888-7----------------------------------------------
|---------------------------5--1-1-1-1-5-5-5-5-8-8-8-8-13-13-13-13-12/5--



|--------------------------------------
|------------10-8---------------10-8---
|---5-7b---5------9----5-7b---5------9-
|-7------7-----------7------7----------
|--------------------------------------
|--------------------------------------
            
Submit corrections


        Apache lessons Hard to play? Try these video lessons and learn fast Apache lessons
        
↑ Back to top | Tablatures and chords for acoustic guitar and electric guitar, ukulele, drums are parodies/interpretations of the original songs. You may use it for private study, scholarship, research or language learning purposes only