» » »

Sam Smith - Writings On The Wall Acoustic Tabs

Artists:  A B C D E F G H I J K L M N O P Q R S T U V W X Y Z # 

Writings On The Wall Acoustic Tabs

(ver. 2) Click to play this song!
Sam Smith
 Rating:
4.1/5 (31 vote)

 Writings On The Wall Acoustic lessons Tabs too difficult? Try these video lessons and learn fast
 
                [Intro]

e|--0---2--0----------------------5-3-2---0---2--0-----0---------------------|
B|--0---0-----0-----0-----0---------------0---0-----4----0-------------------|
G|--0---0--------------2--0----0----------0---0-------------2--2^4-----------|
D|--2---2--------2--------0---------------2---2-----2------------------------|
A|--2-------------------------------------2----------------------------------|
E|--0---------------------3---------------0--------------------3-----3-------|


[Verse 1]

e|--2---------------------------------2-----2-----2-------------------------------------2-----2-----2-----|
B|----0------5----3----0--------0-------0-----0-----0------5---3------0----------0--------0-----0-----0---|
G|------0----------------0----2-0---------0-----0-----0-----------------0----2---0----------0------0----0-|
D|---------------------2---2------------------------------------------2---2-------------------------------|
A|--------------------------------------------------------------------------------------------------------|
E|--0---------------------------3-----0------------------------------------------3------0-----------------|
             I've been here   before                       But always hit    the floor

e|------------------------------------------------------0-2------------------|
B|--0----1-----1-1---1----1 ^ 0--------0---0-4------4------------------------|
G|-------0-----------------------0-------------4-----------------------------|
D|-------2-------------------------2-----------------------------------------|
A|-------3----------------3------------------2-------------------------------|
E|---------------------------------------------------------------------------|
    I've spent a lifetime runnin'      And I always get away

e|-------------------------------------------------------------0---2-----|
B|------0----1---1---1--1----1 ^ 0-----------0----4--------4-------4-----|
G|-----------0-------------------------0----------------4----------2-----|
D|-----------2---------------------------2--------2----------------4-----|
A|--2--------3---------------3-------------------------------------2-----|
E|-----------------------------------------------------------------------|
    But with you I'm feeling something       That makes me want to stay



e|--2---------------------------------2-----2-----2-------------------------------2------2-----2----------|
B|----0------5----3--0----------0-------0-----0-----0-------5-3-----0-----3--3------0------0-----0--------|
G|------0--------------0----2---0---------0-----0-----0---------------0---------------0------0-----0------|
D|-------------------2---2------------------------------------------2---2---------------------------------|
A|--------------------------------------------------------------------------------------------------------|
E|--0---------------------------3-----0--------------------------------------3----0-----------------------|
             I'm  prepared  for this                        I never shoot to miss

e|------------------------------------------------------------------------0---2-----|
B|--0-----1----1----1--1----1--1 ^ 0---------0--0---4-------------4-----------------|
G|--------0---------------------------0-------------------4-------------------------|
D|--------2-----------------------------2-------------------------------------------|
A|--------3--------------------3--------------------2-------------------------------|
E|----------------------------------------------------------------------------------|
    But I feel like a storm is coming        If I'm gonna make it through the day

e|-------------------------------------------------------------------0--2-----|
B|-------0-------1--1----1---1--1 ^ 0---------0----0---4----------4-----4-----|
G|---------------0---------------------0------------------------4-------2-----|
D|---------------2-----------------------2------------------------------4-----|
A|--2------------3--------------3----------------------2----------------2-----|
E|----------------------------------------------------------------------------|
    Then there's no more use in runnin'       This is something I gotta face


[Refrain A]

e|--0--0--2-3-------0----0---0---0-----0---0-----2---3--------0--------------|
B|--0--0--0-0----3--0-----0---0---0----0---0-----0---0-----3--0--------------|
G|--0--0--0-0----0--0------0---0---0---0---0-----0---0-----0--0--------------|
D|--2---------------2------------------2----------------------2--------------|
A|--2---------------3------------------2----------------------3--------------|
E|--0--0--2-3----3-------0-------------0---0-----2---3-----3-----------------|
       If I risk it all                    Could you break my fall?


[Refrain B]

e|--/8---8--8-7-----7---5----5---------5----3------2---3----3---3/5-3-2------|
B|-------------------------8-------------------------------------------------|
G|---------------------------------------------------------------------------|
D|---------------------------0----------------------------------------0------|
A|------------7----------------------------------------3---------------------|
E|---------------------------------------------------------------------------|
     How do I live? How do I breathe?  When you're not here I'm suffocating

e|-/8-8-----8----7-----7----5---------5-----5-----3--2--3----3------3/5\3----3---2-----|
B|---------------------------------8---------------------------------------------------|
G|-------------------------------------------------------------------------------------|
D|------------------------------------0------------------------------------------------|
A|---------------7--------------------------------------3------------------------------|
E|-------------------------------------------------------------------------------------|
    I wanna feel love, run through my blood  Tell me is this where I give it all up?

[Refrain C]

e|------0---0-3----0--3/5-----2-------------------7--5--3---3/5\3^0--0---0---2--0-----0----------------|
B|--3---1---------------------3---4-----0-----0--------------------------0---0-----4-----0-------------|
G|------0---------------------2---4--------------------------------------0---0--------------2--2^4-----|
D|------2---------------------4---4--------------------------------------2---2-----2-------------------|
A|------0---------------------2---2--------------------------------------2-----------------------------|
E|-----------------------------------------------------------------------0---------------------3-------|
    For you I have to risk it all       Cause the writing's on       the wall


[Verse 2]

e|-----2---2------------------------------------2---2---2--------------------------------2---2----|
B|------0---0----5-3-------0-----0----0----------0---0---0----5----3----0--------3--3-----0---0---|
G|-------0---0---------------0-----2-----0--------0---0---0----------------0---------------0---0--|
D|-------------------------2---2----------------------------------------2-----2-------------------|
A|------------------------------------------------------------------------------------------------|
E|--3--0---------------------------------3------0-----------------------------------3-------------|
                 A million shards     of glass                That haunt me from my past


e|---------------------------------------------------------0--2-----|
B|--0---1---1-----1-----1--1^0--------0---0---4--------4------------|
G|------0-----------------------0-------------------4---------------|
D|------2-------------------------2---------------------------------|
A|------3-------------------------------------2---------------------|
E|------------------------------------------------------------------|
     As the stars begin to gather     And the light begins to fade

e|----------------------------------------------------------0-2-------|
B|-------0---1----1-1----1--1^0--------0----0---4--------4----4-------|
G|-----------0-------------------0-----------------4----------2-------|
D|-----------2---------------------2--------------------------4-------|
A|-----------3----------------------------------2-------------2-------|
E|--2-----------------------------------------------------------------|
    When all hope begins to shatter    Know that I won't be afraid


[Refrain A,B,C]

e|------7--5--3----3/5\3^0------0-----------0---2--0-------|
B|--0-0-------------------------0---0-----0-----0-----0----|
G|------------------------------0---0--------------2--0----|
D|------------------------------2---2--------2--------0----|
A|------------------------------2--------------------------|
E|------------------------------0---------------------3----|
    The writting's  on      the wall

[Refrain B]x2

[Refrain C]            
Submit corrections


        Writings On The Wall Acoustic lessons Hard to play? Try these video lessons and learn fast Writings On The Wall Acoustic lessons
        
↑ Back to top | Tablatures and chords for acoustic guitar and electric guitar, ukulele, drums are parodies/interpretations of the original songs. You may use it for private study, scholarship, research or language learning purposes only