» » »

Sam Smith - Leave Your Lover Tabs

Artists:  A B C D E F G H I J K L M N O P Q R S T U V W X Y Z # 

Leave Your Lover Tabs

(ver. 1) Click to play this song!
Sam Smith
 Rating:
4.2/5 (5 votes)

 Leave Your Lover  lessons Tabs too difficult? Try these video lessons and learn fast
 
                Chords used:
  D   A    G* A9/G9  D* D/A D/F# Em  F#m  G  G/F# Bm  E7  
e|2| |0|  |0|  |0|  |0| |0| |0|  |0| |2| |3| |3|  |2| |0|
B|3| |2|  |0|  |0|  |3| |3| |3|  |0| |2| |3| |3|  |3| |0|
G|2| |2|  |4|  |2|  |0| |2| |0|  |0| |2| |0| |2|  |4| |1|
D|0| |2|  |0|  |0|  |0| |0| |4|  |2| |4| |0| |0|  |4| |0|
A|x| |0|  |2|  |2|  |x| |x| |0|  |2| |4| |2| |0|  |2| |2|
E|x| |x|  |3|  |3|  |x| |x| |x|  |0| |2| |3| |2|  |2| |0|

Intro (Plucking or strumming, your choice):

       D 
e|-----2-----------2-----------2------2-----------2-----------2--------------|
B|-----3-----------3-----------3------3-----------3-----------3--------------|
G|---------------------------------------------------------------------------| x2
D|-----0-----0-----0-----0-----0---0--0-----0-----0-----0-----0--0-----------|
A|---------0---0-------0---0-----0--------0---0-------0---0-----0------------|
E|---------------------------------------------------------------------------|

Verse x2 (Strumming works best, but feel free to pluck the chords):

    D                                A               A9/G9 G*    A9/G9  G*
     I don't have much to give,  but I don't care for go - old
                               
e|-----2-----------------------------0--------x-------0-----------0----------|
B|-----3-----------------------------2--------x-------0-----------0----------|
G|-----2-----------------------------2--------x-------2--h--4-----2--h--4----|
D|-----0-----------------------------2--------x-------0-----------0----------|
A|-----x-----------------------------0--------x-------2-----------2----------|
E|-----x-----------------------------x--------x-------3-----------3----------|

Justification: At the gold part, strum A9/G9 once, get the hammer on 4 with your
pinky while leaving your third finger on 2. This enables you to quickly change
between chords to achieve the perfect tone. 

   G*                             D*   D/A   D*  D/F#    
    What use is money, when you need someone to hold?
            
                                                      (pluck)
e|-0------------------------------0----------0-----------0-------------------|
B|-0------------------------------3----------3-----------3-------------------|
G|-4------------------------------0--h--2----0-------------------------------|
D|-0------------------------------0----------0--h--4-------------------------|
A|-2------------------------------x----------x-------------------------------|
E|-3------------------------------x----------x-------------------------------|

Don't have direction, I'm just rolling down this road
Waiting for you to bring me in from out the cold

Pre Chorus: 

       Em                                   F#m
You'll never know the endless nights, the rhyming of the rain,
    Em                              A
Or how it feels to fall behind and watch you call his name

Chorus:

D                              Em  
Pack up and leave everything, don't you see what I can bring

G                 G/F#   Em       D
Can't keep this beating heart at bay 
          
                             (Pluck this when you hear it)
e|---------------------------------------------------------------------------|
B|---------------------------------------------------------------------------|
G|----------------------------------------0-2--------------------------------|
D|--------------------------------------4------------------------------------|
A|---------------------------------------------------------------------------|
E|---------------------------------------------------------------------------|

D                            Em
Set my midnight terror free, I will give you all of me
Bm          E7     G             D
Leave your lover, leave him for me
Bm          E7     G             D      (<-- This part is wrong, but I don't know
Leave your lover, leave him for me           what chord it is. Help me out?)

Piano tune:

e|-----2-----------------------------0--------x-------0-----------0----------|
B|-----3-----------------------------2--------x-------0-----------0----------|
G|-----2-----------------------------2--------x-------2--h--4-----2--h--4----|
D|-----0-----------------------------2--------x-------0-----------0----------|
A|-----x-----------------------------0--------x-------2-----------2----------|
E|-----x-----------------------------x--------x-------3-----------3----------|

e|-0------------------------------0----------0-----------0-------------------|
B|-0------------------------------3----------3-----------3-------------------|
G|-4------------------------------0--h--2----0-------------------------------|
D|-0------------------------------0----------0--h--4-------------------------|
A|-2------------------------------x----------x-------------------------------|
E|-3------------------------------x----------x-------------------------------|

Rinse and repeat. Enjoy!

I don't have much to give, but I don't care for gold
What use is money, when you need someone to hold?
Don't have direction, I'm just rolling down this road
Waiting for you to bring me in from out the cold

You'll never know the endless nights, the rhyming of the rain,
Or how it feels to fall behind and watch you call his name

Pack up and leave everything,
Don't you see what I can bring
Can't keep this beating heart at bay
Set my midnight sorrow free,
I will give you all of me
Just leave your lover, leave him for me.
Leave your lover, leave him for me.

We sit in bars and raise our drinks to growing old
Oh, I'm in love with you and you will never know,
But if I can't have you I'll walk this life alone
Spare you the rising storms and let the rivers flow

You'll never know the endless nights, the rhyming of the rain
Or how it feels to fall behind and watch you call his name

Pack up and leave everything,
Don't you see what I can bring
Can't keep this beating heart at bay
Set my midnight sorrow free,
I will give you all of me
Just leave your lover, leave him for me
Leave your lover, leave him for me.
Leave your lover, leave him for me.
            
Submit corrections


        Leave Your Lover  lessons Hard to play? Try these video lessons and learn fast Leave Your Lover  lessons
        
↑ Back to top | Tablatures and chords for acoustic guitar and electric guitar, ukulele, drums are parodies/interpretations of the original songs. You may use it for private study, scholarship, research or language learning purposes only