» » »

Sam Smith - Im Not The Only One Tabs

Artists:  A B C D E F G H I J K L M N O P Q R S T U V W X Y Z # 

Im Not The Only One Tabs

(ver. 1) Click to play this song!
Sam Smith
 Rating:
3.4/5 (5 votes)

 Im Not The Only One  lessons Tabs too difficult? Try these video lessons and learn fast
 
                Tuning: Standard
Intro/Chorus/Verses
 
         F           A             Dm                           
e|---------------------------------------------------------------------------|
B|--------1----------2-2-----------3------3----------------------------------|
G|------2---2----------------------2-----------------------------------------|  X3
D|----3-----------------------------------3----------------------------------|
A|---------------------------------------------------------------------------| 
E|---------------------------------------------------------------------------|
         F           C                F
e|---------------------------------------------------------------------------|
B|--------1------------------------------------------------------------------|
G|------2--2---------0-0--------------2--------------------------------------|
D|----3--------------2-2--------------3--------------------------------------|
A|---------------------------------------------------------------------------|
E|---------------------------------------------------------------------------|

            
Submit corrections


        Im Not The Only One  lessons Hard to play? Try these video lessons and learn fast Im Not The Only One  lessons
        
↑ Back to top | Tablatures and chords for acoustic guitar and electric guitar, ukulele, drums are parodies/interpretations of the original songs. You may use it for private study, scholarship, research or language learning purposes only