» » »

Sam Smith - Not In That Way Tabs

Artists:  A B C D E F G H I J K L M N O P Q R S T U V W X Y Z # 

Not In That Way Tabs

(ver. 1) Click to play this song!
Sam Smith
 Rating:
4/5 (4 votes)

 Not In That Way  lessons Tabs too difficult? Try these video lessons and learn fast
 
                Verse I
e|-------------|--------9---------|---------7-------|---------3-------------||
B|-------7-----|--------10--------|-----------7-----|-----------3-----------||
G|-----7---7---|-----11----11-----|-------------7---|-------------4---------||
D|---7---------|--11----------11--|------9----------|------5------------X5--||
A|-5---------5/|9-----------------|----9------------|----5------------------||
E|-------------|------------------|--7--------------|--3--------------------||

Chorus
e|--------7------|---------5------|------------------|---------3-------------|
B|----------7----|-----------5----|---------7--------|-----------3-----------|
G|-----7------7--|-------------6--|-------7---7------|-------------4---------|
D|---9-----------|------7---------|-----7-------7----|------5----------------|
A|---------------|----7-----------|---5--------------|----5------------------|
E|-7-------------|--5-------------|------------------|--3--------------------|

e|-----3--------|-------5--------|----------------|--------------------------|
B|-----3--------|-------5--------|--------7-------|--------------------------|
G|-----4--------|-------6--------|------7---7-----|--------------------------|
D|-----5--------|-------7--------|----7-------7---|-------7------------------|
A|-----5--------|-------7--------|--5-------------|-----7--------------------|
E|-----3--------|-------5--------|----------------|---5-------5/7--5--7------|

Verse II
e|-------------|--------9---------|---------7-------|---------3--------------|
B|-------7-----|--------10--------|-----------7-----|-----------3------------|
G|-----7---7---|-----11----11-----|-------------7---|-------------4----------|
D|---7---------|--11----------11--|------9----------|------5-------------X2--|
A|-5---------5/|9-----------------|----9------------|----5-------------------|
E|-------------|------------------|--7--------------|--3---------------------|

e|---3---|----7----|----5----|----5----|----3----|----7----|----5----|---5---|
B|---3---|----7----|----5----|----7----|----3----|----7----|----5----|---5---|
G|---4---|----7----|----6----|----7----|----4----|----7----|----6----|---6---|
D|---5---|----9----|----7----|----7----|----5----|----9----|----7----|---7---|
A|---5---|----9----|----7----|----5----|----5----|----9----|----7----|---7---|
E|---3---|----7----|----5----|----5----|----3----|----7----|----5----|---5---|
Strum

Link
e|-----|-------------|--------9---------|---------7------|---------3---------|
B|-----|-------7-----|--------10--------|-----------7----|-----------3-------|
G|-----|-----7---7---|-----11----11-----|-------------7--|-------------4-----|
D|-----|---7---------|--11----------11--|------9---------|------5----------X2|
A|---7-|-5---------5/|9-----------------|----9-----------|----5--------------|
E|-5---|-------------|------------------|--7-------------|--3----------------|

Chorus
e|---------7------|---------5------|---------------|---------3------|-3-|-5--|
B|-----------7----|-----------5----|--------7------|-----------3----|-3-|-5--|
G|-------------7--|-------------6--|------7---7----|-------------4--|-4-|-6--|
D|------9---------|------7---------|----7-------7--|-----5----------|-5-|-7--|
A|----9-----------|----7-----------|--5------------|---5------------|-5-|-7--|
E|--7-------------|--5-------------|---------------|-3--------------|-3-|-5--|

e|---------|----------7------|----------------|-3---|--5---|----------------||
B|---------|------------7----|---------7------|-3---|--5---|----------------||
G|---------|--------------7--|-----------7----|-4---|--6---|------7---------||
D|---------|-------9---------|-------------9--|-5---|--7---|----7---7-------||
A|-------5-|-----9-----------|--9---9---------|-5---|--7---|--5-------5-----||
E|-6--7----|---7-------------|----7-----------|-3---|--5---|----------------||
            
Submit corrections


        Not In That Way  lessons Hard to play? Try these video lessons and learn fast Not In That Way  lessons
        
↑ Back to top | Tablatures and chords for acoustic guitar and electric guitar, ukulele, drums are parodies/interpretations of the original songs. You may use it for private study, scholarship, research or language learning purposes only