» » »

Sam Smith - Writings On The Wall Tabs

Artists:  A B C D E F G H I J K L M N O P Q R S T U V W X Y Z # 

Writings On The Wall Tabs

(ver. 1) Click to play this song!
Sam Smith
 Rating:
2.6/5 (29 votes)

 Writings On The Wall  lessons Tabs too difficult? Try these video lessons and learn fast
 
                e|-0-2-0-------------------0-2-0---0-----------------------------------------|
B|-0-----0------0----------0-----4---0---0-----------------------------------|
G|-0--------2-4-4---2-4----0-----------2-4---2-4-----------------------------|  Intro 
D|-2------------0----------2-------------0-----------------------------------|
A|-2------------2----------2-------------2-----------------------------------|
E|-0------------3----------0-------------3-----------------------------------|

e|-0--0---------------------0--0---------------------------------------------|
B|-0----3-0------0----------0-----3-0------0------------1-1-1-1-0--0---------|
G|-0---------2-4-4---2-4----0----------2-4-4---2-4------0-0-0-0-0--0---------|  Verse Play Two Times   
D|-2-------------0----------2--------------0------------2-2-2-2-2--2---------|
A|-2-------------2----------2--------------2------------3--------------------|
E|-0-------------3----------0--------------3---------------------------------|
                                                                                 
e|---------2-------------------------------2---------------------------------|
B|-4-4-4-5-5------1-1-1-1-0--0-----4-4-4-5-5---------------------------------|
G|-4-4-4-4-4------0-0-0-0-0--0-----4-4-4-4-4---------------------------------|  
D|-4-4-4-4-4------2-2-2-2-2--2-----4-4-4-4-4---------------------------------|
A|-2-2-2-2-2------3----------------2-2-2-2-2---------------------------------|
E|---------------------------------------------------------------------------|

e|-0-0-2-3------0---0---0-0-2-3-------------------8-8-8-7--7-5-3-5-----------|
B|-0-0-0-0--3---1-3-----0-0-0-0--3---4-4-4-4------------0--------0-----------|
G|-0-0-0-0------0-------0-0-0-0------4-4-4-4------------0--------0-----------|   Chorus
D|-2-2----------2-------2-2----------4-4-4-4---------------------4-----------|
A|-2-2----------3-------2-2----------2-2-2-2---------------------5-----------|
E|-0-0-2-3--------------0-0-2-3-------------------------0--------------------|

e|-5-3-2-3--3-5-3-2------8-8-7--7-5-3-5---5-3-2-3--3-5-3--2------------------|
B|-------0--------3----------0--------0---------0---------3-3----------------|
G|-------0--------2----------0--------0---------0---------4------------------|
D|-------2--------0-------------------4---------2---------4------------------|
A|-------3----------------------------5---------3---------2------------------|
E|---------------------------0-----------------------------------------------|

e|-0---0--0-3-0-3-5------5-7-3-5-3-0-0---------------------------------------|
B|-1-3------------3------------------0---------------------------------------|
G|-0--------------0----4-------------0---------------------------------------|
D|-2---------------------------------2---------------------------------------|
A|-3--------------2------------------2---------------------------------------|
E|-----------------------------------0---------------------------------------|
            
Submit corrections


        Writings On The Wall  lessons Hard to play? Try these video lessons and learn fast Writings On The Wall  lessons
        
↑ Back to top | Tablatures and chords for acoustic guitar and electric guitar, ukulele, drums are parodies/interpretations of the original songs. You may use it for private study, scholarship, research or language learning purposes only