» » »

Sam Smith - Stay With Me Ukulele

Artists:  A B C D E F G H I J K L M N O P Q R S T U V W X Y Z # 

Stay With Me Ukulele

(ver. 2) Click to play this song!
Sam Smith
 Rating:
4.3/5 (22 votes)

  Stay With Me lessons Tabs too difficult? Try these video lessons and learn fast
 
                Verse:

 |Guess it's true,       |But I still need love |These nights never seem|I don't want you to leave, 
 |I'm not good at a      |cause I'm just a man  |to go to plan          |will you hold my hand?
 |one-night stand        |                      |                       |
G|-----------------------|----------------------|-----------------------|------------------------|
C|0-2---0-2---0-2---00---|0-2---0---0-2---------|-----------------------|0-2---0-2---0-2---00----|
E|----0-----0-----0------|----0---0-----0-3-0---|---------------1-0-----|----0-----0-----0-------|
A|-----------------------|----------------------|12-10-7-55-333---------|------------------------|


Chorus:
 
                                                 |This ain't love        |But darling,           
 |Won't you stay with me?|Cause you're all I need|it's clear to see      |stay with me
 |      Am F  C          |    Am F  C            |    Am  F              |      Am F  C
G|------2--5--5----------|----2--2--0------------|----2---2--------------|------2--5--5----------|
C|0-----4--5--4----------|0-2-0--0--0------------|----0---0-----2-0------|0-0-2-4--5--4----------|
E|--0-3-5--5--3----------|----0--1--0------------|0-3-0---1-3-0----------|------5--5--3----------|
A|------3--3--3----------|----0--0--3------------|----0-2-0--------------|------3--3--3----------|


Verse 2:

                         |No it's not a good look|And deep down I know   |But you can lay with me 
 |Why am I so emotional? |gain some self control |this never works       |so it doesn't hurt
G|-----------------------|-----------------------|-----------------------|-----------------------|
C|0-2---0-2---00---------|0-2---2-0---0-2--------|0--------------------20|0-2---0-2---0-2---0-2-0|
E|----0-----0------------|----0-----0-----0-3-0--|--------33-00--1-000---|----0-----0-----0------|
A|-----------------------|-----------------------|--320------------------|-----------------------|


Chorus: 
 
                                                 |This ain't love        |But darling,           
 |Won't you stay with me?|Cause you're all I need|it's clear to see      |stay with me
 |      Am F  C          |    Am F  C            |    Am  F              |      Am F  C
G|------2--5--5----------|----2--2--0------------|----2---2--------------|------2--5--5----------|
C|0-----4--5--4----------|0-2-0--0--0------------|----0---0-----2-0------|0-0-2-4--5--4----------|
E|--0-3-5--5--3----------|----0--1--0------------|0-3-0---1-3-0----------|------5--5--3----------|
A|------3--3--3----------|----0--0--3------------|----0-2-0--------------|------3--3--3----------|


Bridge: (That instrumental part where he goes all "ooooh!")
 |      Am F  C          |    Am F  C            |G  Am  F  C           |G#dim    Am F  C
G|------2--5--5----------|----2--2--0------------|0--2---2--0-----------|4--------2--5--5--------|
C|------4--5--4----------|----0--0--0------------|2--0---0--0-----------|2--------4--5--4--------|
E|------5--5--3----------|----0--1--0------------|3--0---1--0-----------|4--------5--5--3--------|
A|------3--3--3----------|----0--0--3------------|2--0---0--0-----------|2--------3--3--3--------|


Chorus (The little bit different chorus):
                                                                      
 |Won't you stay with me?|Cause you're all I need    ||This ain't love           
        Am F  C               Am F  C                ||it's clear to see |But darling,stay with me  
G|------2--5--5----------|----2--2--0----------------|-------------------|------0-----1----------|
C|0-----4--5--4----------|0-2-0--0--0----------------|----0--------------|0---2-0-------0-0-2-0--|
E|--0-3-5--5--3----------|----0--1--0----------------|0-3-----5-----0-3--|--0-----0-1-0----------|
A|------3--3--3----------|----0--0--3----------------|----0-3-5-7-5-3----|-----------------------|


Chorus:

                                                 |This ain't love        |But darling,           
 |Won't you stay with me?|Cause you're all I need|it's clear to see      |stay with me
 |      Am F  C          |    Am F  C            |    Am  F              |      Am F  C
G|------2--5--5----------|----2--2--0------------|----2---2--------------|------2--5--5----------|
C|0-----4--5--4----------|0-2-0--0--0------------|----0---0-----2-0------|0-0-2-4--5--4----------|
E|--0-3-5--5--3----------|----0--1--0------------|0-3-0---1-3-0----------|------5--5--3----------|
A|------3--3--3----------|----0--0--3------------|----0-2-0--------------|------3--3--3----------|            
Submit corrections


         Stay With Me lessons Hard to play? Try these video lessons and learn fast  Stay With Me lessons
        
↑ Back to top | Tablatures and chords for acoustic guitar and electric guitar, ukulele, drums are parodies/interpretations of the original songs. You may use it for private study, scholarship, research or language learning purposes only