» » »

Sam Smith - Stay With Me Bass

Artists:  A B C D E F G H I J K L M N O P Q R S T U V W X Y Z # 

Stay With Me Bass

(ver. 1) Click to play this song!
Sam Smith
 Rating:
2.7/5 (21 vote)

 Stay With Me  lessons Tabs too difficult? Try these video lessons and learn fast
 
                [Verse 1:]
Guess it's true, I'm not good at a one-night stand
But I still need love 'cause I'm just a man
These nights never seem to go to plan
I don't want you to leave, will you hold my hand?

NOTHING

[Chorus:]
Oh, won't you stay with me?

G|-----------------------------------------------|
D|-----------------------------------------------|
A|---------------------------------------3-------|
E|--------------5-----------1--------------------|

'Cause you're all I need

G|-----------------------------------------------|
D|-----------------------------------------------|
A|---------------------------------------3-------|
E|--------------5-----------1--------------------|

This ain't love, it's clear to see


G|-----------------------------------------------|
D|-----------------------------------------------|
A|----------------------------------------3------|
E|-----3--------5-----------1--------------------|

But darling, stay with me

G|-----------------------------------------------|
D|-----------------------------------------------|
A|---------------------------------------3-------|
E|-----4---------5-----------1-------------------|

[Verse 2:]

Why am I so emotional?

G|-----------------------------------------------|
D|-----------------------------------------------|
A|---------------------------------------3-------|
E|--------------5-----------1--------------------|

No, it's not a good look, gain some self-control

G|-----------------------------------------------|
D|-----------------------------------------------|
A|---------------------------------------3-------|
E|------------3--5-----------1-------------------|

And deep down I know this never works

G|-----------------------------------------------|
D|-----------------------------------------------|
A|---------------------------------------3-------|
E|--------------5-----------1--------------------|

But you can lay with me so it doesn't hurt

G|-----------------------------------------------|
D|-----------------------------------------------|
A|----------5----------------------------3-------|
E|--------------5-----------3--------------------|

[Chorus:]
Oh, won't you stay with me?
'Cause you're all I need
This ain't love, it's clear to see
But darling, stay with me

[Bridge:]

G|-----------------------------------------------|
D|-----------------------------------------------|
A|----3-----2------------------------3-----------|
E|--------------5-----------1--------------------|

G|-----------------------------------------------|
D|-----------------------------------------------|
A|---------------------------------------3-------|
E|--------------5-----------1--------------------|

G|-----------------------------------------------|
D|-----------------------------------------------|
A|----------------------------------------3------|
E|------3-------5-----------1--------------------|

G|-----------------------------------------------|
D|-----------------------------------------------|
A|---------------------------------------3-------|
E|------4--------5-----------1-------------------|

[Chorus:]
Oh, won't you stay with me?
'Cause you're all I need

NOTHING, but then after the second bar...

This ain't love, it's clear to see. But darling, stay with me

G|------------------------------------------------------------------------------------------------------|
D|------------------------------------------------------------------------------------------------------|
A|----------------------------------------3--------------------------------------------------------3----|
E|---5--------------1---------------------------------------4----------5---------------1----------------|


[Chorus:]
Oh, won't you stay with me?

G|-----------------------------------------------|
D|-----------------------------------------------|
A|------------------------------------3----------|
E|------0----3----5-----------1------------------|

'Cause you're all I need

G|-----------------------------------------------|
D|-----------------------------------------------|
A|--------------------------------3--------------|
E|--------------5-----------1--------------------|

This ain't love, it's clear to see

G|-----------------------------------------------|
D|-----------------------------------------------|
A|-3-5-3---------------------------------3-------|
E|----------3-----5-----------1------------------|

But darling, stay with me

G|-----------------------------------------------|
D|-----------------------------------------------|
A|---------------------------------------3-------|
E|--------4------5-----------1-------------------|
            
Submit corrections


        Stay With Me  lessons Hard to play? Try these video lessons and learn fast Stay With Me  lessons
        
↑ Back to top | Tablatures and chords for acoustic guitar and electric guitar, ukulele, drums are parodies/interpretations of the original songs. You may use it for private study, scholarship, research or language learning purposes only