Home » R » Rocksteddy »

Rocksteddy - No Touch Tabs

Artists:  A B C D E F G H I J K L M N O P Q R S T U V W X Y Z # 

No Touch Tabs

(ver. 1) Click to play this song!
Rocksteddy
(Intro)
e-19-14-------------14-19-14-------------14-19-14-------------14-19-14---|
 b-------17----17-17----------17----17-17----------17----17-17-----------|
 g----------16-------------------16-------------------16-----------------|
 d-----------------------------------------------------------------------|
 a-----------------------------------------------------------------------|
 e-----------------------------------------------------------------------|

e-------------14-19-14-------------14-19-14-------------14-19-14---------|
 b-17----17-17----------17----17-17----------17----17-17----------17-----|
 g----16-------------------16-------------------16-------------------16--|
 d-----------------------------------------------------------------------|
 a-----------------------------------------------------------------------|
 e-----------------------------------------------------------------------|

 e-------14-17-16----------14-17-16-------------14-17-16----------------|
 b-17-17----------17----17----------17----17-17----------17-------------|
 g-------------------16----------------16-------------------16----------|
 d----------------------------------------------------------------------|
 a----------------------------------------------------------------------|
 e----------------------------------------------------------------------|

 e----------------------------------------------------------------------|
 b-17-15-14-12-10-------------------------------------------------------|
 g----------------------------------------------------------------------|
 d----------------------------------------------------------------------|
 a----------------------------------------------------------------------|
 e----------------------------------------------------------------------|                
                                                             first tab ko to sana 
nyo.......
            
Submit corrections

↑ Back to top | Tablatures and chords for acoustic guitar and electric guitar, ukulele, drums are parodies/interpretations of the original songs. You may use it for private study, scholarship, research or language learning purposes only