Home » R » Rocksteddy »

Rocksteddy - No Touch Bass

Artists:  A B C D E F G H I J K L M N O P Q R S T U V W X Y Z # 

No Touch Bass

(ver. 2) Click to play this song!
Rocksteddy
Song Title: No Touch
Artist    : RockSteddy
Tuning    : E A D G ( Standard )



Intro:
G|---------------|-----------------------|
D|---------------|-----------------------|
A|-5555555555555-|---7-5-4-2-------------|
E|---------------|-----------5-----------|


G|-------------2------------------------|             
D|------2-4-2-----4-2-4-2---------------|                Play 2x
A|-2-4---------------------4------------|
E|--------------------------------------|


Verse 1:
G|-------------2------------------------|             
D|------2-4-2-----4-2-4-2---------------|                Play 2x
A|-2-4---------------------4------------|
E|5-------------------------------------|           Dead na dead…………


G|-------------7------------------------|             
D|------7-9-7-----9-7-9-7---------------|                
A|5-7-9---------------------7-----------|
E|--------------------------------------|           Kapag ikaw ay……


G|-------------2------------------------|             
D|------2-4-2-----4-2-4-2---------------|                
A|-2-4---------------------4------------|
E|5-------------------------------------|           Ako’y medyo……


Refrain:
G|-------------------------------|             
D|-------------------------------|                
A|-5555555--4-222222-------------|
E|-------------------------------|                   Kailangan ko ang iyong labi….

G|-------------------------------|             
D|-------------------------------|                
A|-4--5555555-4-222222-----------|
E|-------------------------------|                   kaalangan ko ang iyong pisngi….
G|-------------------------------|             
D|-------------------------------|                
A|-4--5555555-7-5-4-2------------|
E|--------------------5----------|                   kalian kaya kita……


G|-------------2------------------------|             
D|------2-4-2-----4-2-4-2---------------|                Play 2x
A|-2-4---------------------4------------|
E|----------------------------5---------|            Sige na2x
Verse 2 ( Play verse tab )
Refrain (Play refrain tab )

Chorus:
G|------------------------------------------------|             
D|------------------------------------------------|                Play 4x
A|------------------------------------------------|
E|---22222222-----------55555555555---------------|

Post Chorus:
G|--------------------------2--------------------|             
D|-----------4-------2-4-2----4-2-4-2------------|                
A|--55555555---0-2-4------------------4----------|
E|-----------------------------------------------|

G|--------------------------2--------------------|             
D|-----------2-------2-4-2----4-2-4-2------------|                
A|--22222222---0-2-4------------------4----------|
E|-----------------------------------------------|

G|---------------------------------------|             
D|---------------------------------------|                
A|--55555555------2222-----2-BREAK-------|
E|---------------------------------------|                   
Papasok yung rap ni teddy then play this if you hear the word “manyakis” XD

Intro:
G|----------------------------|
D|----------------------------|
A|--------7-5-4-2-------------|
E|----------------5-----------|

Verse 3 ( Play verse tab )
Refrain ( Play refrain tab )
Chorus ( Play chorus tab )
Refrain 2x ( Play Refrain tab )

Outro:
|-------------2-------------------------|             
D|------2-4-2-----4-2-4-2---------------|                Play 3x
A|-2-4---------------------4------------|
E|------------------------------5-------|

|-------------2-BREAK------------------|             
D|------2-4-2--------------------------|                
A|-2-4---------------------------------|
E|-------------------------5*-----\17--|


Thanks….
            
Submit corrections

↑ Back to top | Tablatures and chords for acoustic guitar and electric guitar, ukulele, drums are parodies/interpretations of the original songs. You may use it for private study, scholarship, research or language learning purposes only