Home » R » Rocksteddy »

Rocksteddy - No Touch Tabs

Artists:  A B C D E F G H I J K L M N O P Q R S T U V W X Y Z # 

No Touch Tabs

(ver. 3) Click to play this song!
Rocksteddy
Hoy! txt me -- 09109712432


UNO, DOS , TRES ,CUATRO!!!!!....
Intro
1.
Guitar
e|-19-14-------------14-19-14-------------14-19-14-------------14-19-14--|
b|-------17----17-17----------17----17-17----------17----17-17-----------|
g|----------16-------------------16-------------------16-----------------|
D|-----------------------------------------------------------------------|
A|-----------------------------------------------------------------------|
E|-----------------------------------------------------------------------|

e|-------------14-19-14-------------14-19-14-------------14-19-14--------|
b|-17----17-17----------17----17-17----------17----17-17----------17-----|
g|----16-------------------16-------------------16-------------------16--|
D|-----------------------------------------------------------------------|
A|-----------------------------------------------------------------------|
E|-----------------------------------------------------------------------|

e|-------14-17-16----------14-17-16-------------14-17-16-------------------|
b|-17-17----------17----17----------17----17-17----------17--17-15-14-12-10|
g|-------------------16----------------16------------------16--------------|
D|-------------------------------------------------------------------------|
A|-------------------------------------------------------------------------|
E|-------------------------------------------------------------------------|

Guitar2
e|----------------------------------------------------------------------|
b|----------------------------------------------------------------------|
g|------------------------------------------5-7-6-4---------------------|
D|-99999999999999999999999999999999999999---5-7-6-4--7------------------|
A|-99999999999999999999999999999999999999---7-5-4-2--7------------------|
E|-77777777777777777777777777777777777777------------5------------------|



2.Guitar 1&2
 e|-----------------------|-----------------------|
 g|-----------------------|-----------------------|
 b|-----------2-2---------|-----------2-2---------|
 D|------2h4-2---4-2-2-4p2|------2h4-2---4-2-2-4p2|
 A|--2h4------------------|--2h4------------------|
 E|5----------------------|5----------------------|

 e|-----------------------|-----------------------|
 g|---------3-3-----------|-----------------------|
 b|----2h4-2---4-2-2-4p2--|---------2-2-----------|
 D|-2h4-------------------|----2h4-2---4-2-2-4p2--|
 A|5----------------------|-2h4-------------------|
 E|-----------------------|5----------------------|

Verse
 e|-----------------------|-----------------------|
 g|-----------------------|-----------------------|
 b|-----------2-2---------|-----------2-2---------|
 D|------2h4-2---4-2-2-4p2|------2h4-2---4-2-2-4p2|
 A|--2h4------------------|--2h4------------------|
 E|5----------------------|5----------------------|

 e|-----------------------|-----------------------|
 g|---------3-3-----------|-----------------------|
 b|----2h4-2---4-2-2-4p2--|---------2-2-----------|
 D|-2h4-------------------|----2h4-2---4-2-2-4p2--|
 A|5----------------------|-2h4-------------------|
 E|-----------------------|5----------------------|
A
Dead na dead talaga ako
A
sa mga pakembot-kembot mO
D
kapag ikaw ay ngumingiti
A
ako’y medyo nakikiliti

[refrain]
e|-------------------------------------------|
b|-------------------------------------------|
g|777-6-44444-6-777-6-44444-7777-9-7-6--4-2--|
D|777-6-44444-6-777-6-44444-7777-9-7-6--4-2--|
A|555-4-22222-4-555-4-22222-5555-7-5-4--2-0--|
E|-------------------------------------------|
D      Bm
Kailangan ko ang iyong labi
D       Bm
kailangan ko ang iyong pisngi
D        E
kailan kaya kita maiuuwi


DO INTRO A

    sige na sige na            sige na sige na
 e|-----------------------|-----------------------|
 g|-----------------------|-----------------------|
 b|-----------2-2---------|-----------2-2---------|
 D|------2h4-2---4-2-2-4p2|------2h4-2---4-2-2-4p2|
 A|--2h4------------------|--2h4------------------|
 E|5----------------------|5----------------------|


Verse2
 e|-----------------------|-----------------------|
 g|-----------------------|-----------------------|
 b|-----------2-2---------|-----------2-2---------|
 D|------2h4-2---4-2-2-4p2|------2h4-2---4-2-2-4p2|
 A|--2h4------------------|--2h4------------------|
 E|5----------------------|5----------------------|

 e|-----------------------|-----------------------|
 g|---------3-3-----------|-----------------------|
 b|----2h4-2---4-2-2-4p2--|---------2-2-----------|
 D|-2h4-------------------|----2h4-2---4-2-2-4p2--|
 A|5----------------------|-2h4-------------------|
 E|-----------------------|5----------------------|
A
Noon pa man ikaw na talaga
A
pangarap ko sa tuwi-tuwina
D
kailan kaya kita maiiskor
A
kailan kaya kita maaarbor

[chorus]
e|-------------------------------------------|
b|-------------------------------------------|
g|777-6-44444-6-777-6-44444-7777-9-7-6--4-2--|
D|777-6-44444-6-777-6-44444-7777-9-7-6--4-2--|
A|555-4-22222-4-555-4-22222-5555-7-5-4--2-0--|
E|-------------------------------------------|
D     Bm
Kailangan ko ang iyong labi
D      Bm
kailangan ko ang iyong pisngi
D      E
kailan kaya kita maiuuwi

DO INTRO A
sige na sige na
sige na sige na
 e|-----------------------|-----------------------|
 g|-----------------------|-----------------------|
 b|-----------2-2---------|-----------2-2---------|
 D|------2h4-2---4-2-2-4p2|------2h4-2---4-2-2-4p2|
 A|--2h4------------------|--2h4------------------|
 E|5----------------------|5----------------------|

[chorus 2]
e|-----------------------------------------------------------------|
b|-----------------------------------------------------------------|
g|-----------------------------------------------------------------|
D|-4444444477777777744444444477777777777744444444442222222222222---|
A|-4444444477777777744444444477777777777744444444442222222222222---|
E|-2222222255555555522222222255555555555522222222220000000000000---|
F#m  A
Pahipo naman (No touch)
F#m  A
pahawak naman (No touch)
F#m    E
di na kita matsansingan

 ADLIB
solo-
e|-------------------------------------8----------------------|
b|-8^10-^10^10^10^10^10^10^10p8----/10---8--------------------|
g|------------------------------7b---------9------------------|
d-------------------------------------------10----------------|
A|------------------------------------------------------------|
E|------------------------------------------------------------|

e|-------------------------------------------------------8------8-12b------|
b|-----------------------13------13------13------13-1010---1010-------13---|
g|-1414-17-1414-17--1414----1414----1414----1414-------------------------14|
D|-------------------------------------------------------------------------|
A|-------------------------------------------------------------------------|
E|-------------------------------------------------------------------------|

e|-15p12-------------15h20~p15----------------(13)-15-17b~-17--|
b|------13---------17---------17------------12-----------------|
g|--------12-----17-------------17--------13-------------------|
d|----------14-17-----------------17-14h17---------------------|
A|-------------------------------------------------------------|
E|-------------------------------------------------------------|

(oh kay tagal ko nang hinihintay, patay na patay tulo laway na inaasam na makamit ang 
mong uhm! Kainis laging mintis di ma-kiss wag lang sanang mapagkamalang


E  D  E 
 manyakis!)
e|-----------------|
b|-----------------|
g|-9-7-9-7-2-------|
D|-9-7-9-7-2-------|
A|-7-5-7-5-0-------|
E|-----------------|

Repeat verse refrain chorus etc
            
Submit corrections

↑ Back to top | Tablatures and chords for acoustic guitar and electric guitar, ukulele, drums are parodies/interpretations of the original songs. You may use it for private study, scholarship, research or language learning purposes only