Home » R » Rocksteddy »

Rocksteddy - No Touch Tabs

Artists:  A B C D E F G H I J K L M N O P Q R S T U V W X Y Z # 

No Touch Tabs

(ver. 2) Click to play this song!
Rocksteddy
 [Intro]

 e-t19-----------t19-----------t19-----------t19-----------t19-------------|
 b----19p17--1717---19p17--1717---19p17--1717---19p17--1717---19p17--1717--|
 g---------16------------16------------16------------16------------16------|
 d-------------------------------------------------------------------------|
 a-------------------------------------------------------------------------|
 e-------------------------------------------------------------------------|
                   ******Sweeping*******
 e-t19-----------t19-----------t17-16------17-16--------17-16--------------|
 b----19p17--1717---19p17--1717------17--17-----17--1717-----17--171514----|
 g---------16------------16------------16---------16-----------16------1614|
 d-------------------------------------------------------------------------|
 a-------------------------------------------------------------------------|
 e-------------------------------------------------------------------------|

 [Stanza]

 e-------------------------------------------------------------------------|
 b-------------------------------------------------------------------------|
 g-------------------------------------------------------------------------|
 d---------4-77-4--------------------4-77-4--------------------------------|
 a-----4-7--------7-4-7-4--------4-7--------7-4-7-4------------------------|
 e-5-7--------------------5--5-7--------------------5----------------------|
 
 e-------------------------------------------------------------------------|
 b-------------------------------------------------------------------------|
 g-------------------------------------------------------------------------|
 d---------4-77-4--------------------4-77-4--------------------------------|
 a-----4-7--------7-4-7-4--------4-7--------7-4-7-4-5----------------------|
 e-5-7--------------------5--5-7-------------------------------------------|

 e-------------------------------------------------------------------------|
 b-------------------------------------------------------------------------|
 g---------4-77-4--------------------4-77-4--------------------------------|
 d-----4-7--------7-4-7-4--------4-7--------7-4-7-4------------------------|
 a-5-7--------------------5--5-7--------------------5----------------------|
 e-------------------------------------------------------------------------|

 [Guitar Solo]

 e--------------------------------------------------8----------------------|
 b-8b10-8b10-8b10-8b10-8b10-8b10-8b10-8-10p8----/10---8--------------------|
 g-------------------------------------------7b---------9------------------|
 d--------------------------------------------------------10---------------|
 a-------------------------------------------------------------------------|
 e-------------------------------------------------------------------------|

 e-------------------------------------------------------8------8-12b------|
 b-----------------------13------13------13------13-1010---1010-------13---|
 g-1414-17-1414-17--1414----1414----1414----1414-------------------------14|
 d-------------------------------------------------------------------------|
 a-------------------------------------------------------------------------|
 e-------------------------------------------------------------------------|

 e-15p12-------------15h20~p15----------------(13)-15-17b~-17r-------------|
 b------13---------17---------17------------12-----------------------------|
 g--------12-----17-------------17--------13-------------------------------|
 d----------14-17-----------------17-14h17---------------------------------|
 a-------------------------------------------------------------------------|
 e-------------------------------------------------------------------------|
            *******Sweeping*******Sweeeping*******

          Mas tama tama to kaysa don sa una kong tab!!
            
Submit corrections

↑ Back to top | Tablatures and chords for acoustic guitar and electric guitar, ukulele, drums are parodies/interpretations of the original songs. You may use it for private study, scholarship, research or language learning purposes only