» » »

Rocksteddy - Superhero Tabs

Artists:  A B C D E F G H I J K L M N O P Q R S T U V W X Y Z # 

Superhero Tabs

(ver. 1) Click to play this song!
Rocksteddy
 Rating:
4/5 (4 votes)

 Superhero lessons Tabs too difficult? Try these video lessons and learn fast
 
                Super Hero

Rocksteddy

|---------------------------------------------------|
|   '&'                                             |
|    #                                              |
|   _#_    Eighteen na ako!!!                       |
|  ( # )                                            |
| ( === )                                           |
|  `---'                                            |
|---------------------------------------------------|


Standard Tuning, |EADGBE|


Guitar 1--Rhythm, Crank Distortion
Guitar 2--Lead, "Juven Pelingon" tone (very sweet distortion, slight phaser, wah)


Guitar Intro

Guitar 1

|-----------|
|-----------|
|-----------|
|-2-2\\-2~~-|3 times
|-2-2\\-2~~-|
|-0-0\\-0~~-|

Guitar 2

|----------------------------------|
|----------------------------------|
|-----8-----9-----8-----9-----8----|
|-9-9---9-----9-----9-----9-----9--|3 times
|-7-7-----7-----7-----7-----7------|
|-0-0------------------------------|

Main Intro

Guitar 1

|-0~-0~-0~-0~-|
|-0~-3~-0~-0~-|
|-1~-2~-2~-1~-|
|-2~-0~-2~-2~-|2 times
|-2~----0~-2~-|
|-0~-------0~-|

Guitar 2

|--------------------------|
|--------------------------|
|-----8-----9--------------|
|-9-9---9-----9------------|2 times
|-7-7-----7-----7--5~~-----|
|-0-0------------------5~~-|

Verse


"Simple lang naman..."

Guitar 1 (Clean)

|-0--0--0--0--|
|-0--0--0--0--|
|-1--6--4--2--|
|-2--6--4--2--|
|-2--4--2--0--|
|-0--0--0--0--|

"Nais ko lang nama'y..."

*same chord progression, add effects and Guitar 2*


Prechorus

Guitar 1

"Lahat ay gagawin..."

|-0~--0~--0~--0~-|
|-0~--0~--0~--0~-|
|-2~--4~--2~--4~-|
|-2~--4~--2~--4~-|
|-x~--x~--0~--2~-|
|-2~--4~--0~--0~-|

"Lahat haharapin"

|-0~-0~-0~-0~-|
|-0~-0~-0~-0~-|
|-4~-6~-9~-2~-|
|-2~-4~-9~-2~-|
|-4~-6~-7~-x~-|
|-0~-0~-0~-2~-|

Lead-in

Guitar 2 (Wah)

|---------------------------|
|-------------9~~~--10~~~-9-|
|-9~~~-11~~~~---------------|2 times
|---------------------------|
|---------------------------|
|---------------------------|

Chorus

"Lilipad ako para lang sa iyo..."

|-0--0--0--0--|
|-0--0--0--0--|
|-1--2--4--2--|
|-2--2--4--2--|4 times, then
|-2--0--2--0--|
|-0--0--0--0--|

"Ikaw ang aking superhero..."

|-0~--|
|-0~--|
|-2~--|
|-2~--|
|-0~--|
|-0~--|

Interlude--Do Guitar 2 Intro once

Verse

Prechorus

Chorus

Interlude--Do Guitar 2 Intro once

Guitar Solo

Guitar 1--Do Chorus Chords

Guitar 2


02:23

|-----------------------------------------------------------------|
|-5-5-5-4---5s7~~~/12-10~-10p9------------------------------------|
|---------4--------------------11~~~--13p11p9-11~~-13p11p9-11~~\--|
|-----------------------------------------------------------------|
|-----------------------------------------------------------------|
|-----------------------------------------------------------------|


02:28

|----12-----12--14~~~-16-16b17r16-14~~-12-14~~16p14p12-14~~\-|
|-12----12-(12)----------------------------------------------|
|----------(9)-----------------------------------------------|
|------------------------------------------------------------|
|------------------------------------------------------------|
|------------------------------------------------------------|

02:34

|-------------16-17h19~~~-17-16----------------------------|
|-------17-19-------------------17~~-19~~--16-16h17--------|
|-----18--------------------------------------------18-16\-|
|---18-----------------------------------------------------|
|-19-------------------------------------------------------|
|----------------------------------------------------------|

02:40

|-16-12----------------14-16p14-17-14h6p14----14----------------------|
|-------14----14-16-16---------------------17----16-17-14----14-------|
|----------13---------------------------------------------16----16-14-|
|---------------------------------------------------------------------|
|---------------------------------------------------------------------|
|---------------------------------------------------------------------|
]
02:43

|---------------------------------------------------------17----14-16-16h17-19-19p17p16p14--------------|
|---------------------------------------14h16h17-14h16h17----17----------------------------16-17-19~~~\-|
|-13h14p13----13---------------13h14h16-----------------------------------------------------------------|
|----------16----14-13-14-16/---------------------------------------------------------------------------|
|-------------------------------------------------------------------------------------------------------|
|-------------------------------------------------------------------------------------------------------|

Juven is a shred god.

Chorus

Outro

|----------------------------|
|-------------------5--------|
|---4---6-----4-------2------|
|-4---2---4-----2-------0-2~-|
|-----------2-----0-------2~-|
|-------------------------0~-|

7:32 - 11:48 p.m., January 13, 2007


My warmest thanks to:

Mama, Family, and Friends
AFS Intercultural Programs Philippines
Ateneo De Manila University
Mayor Jejomar Binay and the City Government of Makati
Miss Tarra Quismundo and The Philippine Daily Inquirer
Juven Pelingon and Rocksteddy
Makati Science High School

Bandmates Abraham Jezreel Somo Pincaro and Jo Margarette Wan Remollo of HEARTBURN
Bandmates Richard Manuel Cruz and Bernard Mendoza of LUNCHBOX

C.L.G.A. :)

Copyright® 2007 by Don Michael Acelar De Leon. All Rights Reserved.
            
Submit corrections


        Superhero lessons Hard to play? Try these video lessons and learn fast Superhero lessons
        
↑ Back to top | Tablatures and chords for acoustic guitar and electric guitar, ukulele, drums are parodies/interpretations of the original songs. You may use it for private study, scholarship, research or language learning purposes only