Home » R » Ringo Starr »

Ringo Starr - It Don't Come Easy Bass

Artists:  A B C D E F G H I J K L M N O P Q R S T U V W X Y Z # 

It Don't Come Easy Bass

(ver. 3) Click to play this song!
Ringo Starr
++++++++++++++++++++++++++++++++++
| Ringo Starr- It Dont Come Easy |
++++++++++++++++++++++++++++++++++


"Peace, remember peace..."

Tuning: EADG



Intro
1.
G|----------------------------------------------|
D|-10/12~----/14-12-10-7~------------/5~--------|
A|-------------------------7~--5-3~-------------|
E|----------------------------------------------|

Chorus
"It dont come easy..."
2.
G|---------------------------------------------------------------------------------------|
D|-----------7~--------2-0-2-5~-----------------------7~--------2-0-2-5~-----------------|
A|-5~------------------------------5~-------5~---------------------------------5~--------|
E|---------------------------------------------------------------------------------------|

Verse
"Got to pay your dues..."
3.
G|---------------------------------------------------------------------------------|
D|---------------------------------------------------------------------------------|
A|-5--0-5--7-0--0-0--2-3--3-3--4-5--5-5--5-5--5-5--7-0--0-0--2-3--3-3--4-5--5-5457-|
E|---------------------------------------------------------------------------------|

Pre-Chorus
"Forget about the past and all your sorrows..."
4.
G|--------------------------------------------------------------------------------|
D|-3~-------3-------5-------5-------3-------3-------------------------------------|
A|--------3-------3-------5-------5-------3-------0-0-0-2-2-2-4-4-4-5-5-5-7-5-4-0-|
E|--------------------------------------------------------------------------------|

Verse
"I dont ask for much..."
5.
G|---------------------------------------------------------------------------------|
D|---------------------------------------------------------------------------------|
A|-5--0-5--7-0--0-0--2-3--3-3--4-5--5-5--0-5--5-5--7-0--0-0--2-3--3-3--4-5--5-5457-|
E|---------------------------------------------------------------------------------|

Pre-Chorus
"Open up your heart..."
6.
G|--------------------------------------------------------------------------------|
D|-3~-------3-------5-------5-------3-------3-------------------------------------|
A|--------3-------3-------5-------5-------3-------0-0-0-2-2-2-4-4-4-5-5-5-7-5-4-0-|
E|--------------------------------------------------------------------------------|

Bridge
7.
G|-------------------------------------------------------------------------|
D|---------------------224455-4---4------445566-77554422---224455-4444-----|
A|-55553322-00223300-33--------555-504-55----------------33-----------5555-|
E|-------------------------------------------------------------------------|

Verse
"Got to pay your dues..."
8.
G|---------------------------------------------------------------------------------|
D|---------------------------------------------------------------------------------|
A|-5--0-5--7-0--0-0--2-3--3-3--4-5--5-5--5-5--5-5--7-0--0-0--2-3--3-3--4-5--5-5457-|
E|---------------------------------------------------------------------------------|

Pre-Chorus
"Peace, remember peace..."
9.
G|--------------------------------------------------------------------------------|
D|-3~-------3-------5-------5-------3-------3-------------------------------------|
A|--------3-------3-------5-------5-------3-------0-0-0-2-2-2-4-4-4-5-5-5-7-5-4-0-|
E|--------------------------------------------------------------------------------|

Verse
"I dont ask for much..."
10.
G|---------------------------------------------------------------------------------|
D|---------------------------------------------------------------------------------|
A|-5--0-5--7-0--0-0--2-3--3-3--4-5--5-5--0-5--5-5--7-0--0-0--2-3--3-3--4-5--5-5--5-|
E|---------------------------------------------------------------------------------|

Bridge
11.
G|---------------------------------------------------------------------------------------------|
D|-----------/14-12-10-7~------------/5~------------------/7~----------------------------------|
A|-5~----------------------7~--5-3~-------------5~-------------------3-2-0-----2-3-4-5~--------|
E|-------------------------------------------------------------------------3~------------------|


Please rate thanks!

Lyrics:

Got to pay your dues if you wanna sing the blues,
And you know it don't come easy.
You don't have to shout or leap about,
You can even play them easy.

Forget about the past and all your sorrows,
The future won't last,
It will soon be over tomorrow.

I don't ask for much, I only want your trust,
And you know it don't come easy.
And this love of mine keeps growing all the time,
And you know it just ain't easy.

Open up your heart, let's come together,
Use a little love
And we will make it work out better.

Peace, remember peace is how we make it,
Here within your reach
If you're big enough to take it.



+++++++++++
| Raileff |
+++++++++++
            
Submit corrections

↑ Back to top | Tablatures and chords for acoustic guitar and electric guitar, ukulele, drums are parodies/interpretations of the original songs. You may use it for private study, scholarship, research or language learning purposes only