Home » R » Ringo Starr »

Ringo Starr - It Don't Come Easy Bass

Artists:  A B C D E F G H I J K L M N O P Q R S T U V W X Y Z # 

It Don't Come Easy Bass

(ver. 2) Click to play this song!
Ringo Starr
 Rating:
4/5 (4 votes)
                It Don't Come Easy by Ringo Starr


--------------Intro----------------------------------|
-----------------------------------------------------|
---5*----7--5----------------------------------------|
--------------8--5-----------------------------------|

*let ring

--------------Verse----------------------------------|
-----------------------------------------------------|
----5-----3--5---------------------------------------|
-------5---------------------------------------------|

(not picking pattern)

Guitar chords(for verse): D, Am, C, D

-------------Bridge (???)----------------------------|
-----------------------------------------------------|
------5------5-6-7-7-7-7-7---------------------------|
--5-------5------------------------------------------|

Guitar intro:

---2---0------0------------------------------------2h3-2-----------|
---------3------3--1-------------1---0-----------3-------3---------|
-----2-----2---------2-------------0---0---0--2------------2-------|
-0---------------------2-0---------------0-------------------------|
-----------------------------3-------------------------------------|
-------------------------------------------------------------------|
            
Submit corrections

↑ Back to top | Tablatures and chords for acoustic guitar and electric guitar, ukulele, drums are parodies/interpretations of the original songs. You may use it for private study, scholarship, research or language learning purposes only