Home » R » Ringo Starr »

Ringo Starr - It Don't Come Easy Bass

Artists:  A B C D E F G H I J K L M N O P Q R S T U V W X Y Z # 

It Don't Come Easy Bass

(ver. 1) Click to play this song!
Ringo Starr
[INTRO]
  D        Am       C        D        D        Am       C  G     D
G:--------|--------|--------|--------|7-------|97------|--------|--------|
D:--------|--------|--------|--------|--------|--A7----|--------|--------|
A:--------|--------|--------|--------|--------|-----7-5|3//A----|--------|
E:--------|--------|--------|--------|--------|--------|--------|--------|

(background vocals only)
  D               Am
    It don't come easy
      C       G          D
  You know it don't come easy
  D               Am
    It don't come easy
      C       G          D  (let ring)
  You know it don't come easy

  D        Am       C  G     D        D        Am       C  G     D (let ring)
G:--------|2-------|---0----|--------|--------|2-------|---0----|--------|--------|
D:0-------|--------|-02-----|0-------|0-------|--------|-02-----|0-------|--------|
A:--------|--------|3-------|--------|--------|--------|3-------|--------|--------|
E:--------|--------|--------|--------|--------|--------|--------|--------|--------|


[VERSE]
  D                           Am
  Got to pay your dues if you want to sing the blues
          C                  D
  And you know it don't come easy
  D                       Am
  You don't have to shout or leap about
          C              D
  You can even play them easy

  D        Am       C        D        D        Am       C        D
G:--------|--------|--------|--------|--------|--------|--------|--------|
D:0---0--0|--------|--------|0--00--0|0--00---|--------|--------|0--00-02|
A:---0----|00-00--2|3--33--3|--------|--------|0--00--2|3--33--3|-----4--|
E:--------|--------|--------|--------|--------|--------|--------|--------|


[CHORUS]
     F             F                 G        G
  Forget about the past and all your sorrow
      F            F               A              A
  The future won't last    It will soon be your tomorrow

  F        F        G        G        F        F        A        A
G:--------|--------|0--00---|0--00---|--------|--------|--------|--------|
D:3--33---|3--33-02|--------|-------4|3--33---|3--33-02|--------|-0--2-4-|
A:--------|-----3--|--------|--------|--------|-----3--|0--2--4-|--------|
E:--------|--------|--------|--------|--------|--------|--------|--------|


[VERSE]
  D                      Am
  I don't ask for much I only want trust
          C                  D
  And you know it don't come easy
  D                           Am
  And this love of mine keeps growing all the time
          C                  D
  And you know it just ain't easy

  D        Am       C        D        D        Am       C        D
G:--------|--------|--------|--------|--------|--------|--------|--------|
D:0--000-0|--------|--------|0--24---|0--00--0|--------|--------|0--00-02|
A:--------|0--000-2|3--333-3|-----024|--------|0--000-2|3--333-3|-----4--|
E:--------|--------|--------|--------|--------|--------|--------|--------|

[CHORUS]
  F                               G
  Open up your heart let's come together
  F                             A
  Use a little luck and we will make it work out better

  F        F        G        G        F        F        A        A
G:--------|--------|0--00---|0--00---|--------|--------|--------|--------|
D:3--33---|3--33-02|--------|-------4|3--33---|3--33-02|--------|-0--2-4-|
A:--------|-----3--|--------|--------|--------|-----3--|0--2--4-|--------|
E:--------|--------|--------|--------|--------|--------|--------|--------|

[SOLO]
  D        Am       C        D        D        Am       C        D
G:--------|--------|--------|--------|------00|2200----|--00--00|--------|
D:00000000|--------|--002233|00------|002244--|----4422|--------|00000000|
A:--------|00223300|33------|--332200|--------|--------|33--33--|--------|
E:--------|--------|--------|--------|--------|--------|--------|--------|

[VERSE]
  D                           Am
  Got to pay your dues if you want to sing the blues
          C                  D
  And you know it don't come easy
  D                       Am
  You don't have to shout or leap about
          C              D
  You can even play them easy

  D        Am       C        D        D        Am       C        D
G:--------|--------|--------|--------|--------|--------|--------|--------|
D:0--000-0|--------|--------|0--24---|0--00--0|--------|--------|0--00-02|
A:--------|0--000-2|3--333-3|-----024|--------|0--000-2|3--333-3|-----4--|
E:--------|--------|--------|--------|--------|--------|--------|--------|

[CHORUS]
  F                               G
  Please remember peace is how we make it
  F                                A
  Here within your reach if you're big enough to take it

  F        F        G        G        F        F        A        A
G:--------|--------|0--00---|0--00---|--------|--------|--------|--------|
D:3--33---|3--33-02|--------|-------4|3--33---|3--33-02|--------|-0--2-4-|
A:--------|-----3--|--------|--------|--------|-----3--|0--2--4-|--------|
E:--------|--------|--------|--------|--------|--------|--------|--------|

[VERSE]
  D                      Am
  I don't ask for much I only want trust
          C                  D
  And you know it don't come easy
  D                           Am
  And this love of mine keeps growing all the time
          C                  D
  And you know it don't come easy

  D        Am       C        D        D        Am       C        D
G:--------|--------|--------|--------|--------|--------|--------|--------|
D:0--000-0|--------|--------|0--24---|0--00--0|--------|--------|0--00-0-|
A:--------|0--000-2|3--333-3|-----024|--------|0--000-2|3--333-3|-------7|
E:--------|--------|--------|--------|--------|--------|--------|-----9--|

[CODA]
  |<--- Single strums -------------->|<-- Normal strumming ---->|(let ring)
  D        Am       C        D        D        Am       C  G     D
G:7-------|97------|--------|--------|--------|--------|--------|--------|
D:--------|--A7----|--------|--------|0-------|--------|--------|0-------|
A:--------|-----7-5|3//A----|--------|--------|0-------|320--02-|--------|
E:--------|--------|--------|--------|--------|--------|---3----|--------|
            
Submit corrections

↑ Back to top | Tablatures and chords for acoustic guitar and electric guitar, ukulele, drums are parodies/interpretations of the original songs. You may use it for private study, scholarship, research or language learning purposes only