» » »

Red Hot Chili Peppers - Sick Love Tabs

Artists:  A B C D E F G H I J K L M N O P Q R S T U V W X Y Z # 

Sick Love Tabs

(ver. 2) Click to play this song!
Red Hot Chili Peppers
 Rating:
4.4/5 (7 votes)

 Sick Love  lessons Tabs too difficult? Try these video lessons and learn fast
 
                [Intro]

e|--------------------------7-6/7-7-7-7--7-7--10--7-7-7-----------------------------7-----7------7-----------|
B|--------------------------7-6/7-7-7-7--8-8--8---8-8-8-------------------------------8-----8------8---------|
G|-----5------7--7h9-7---7--7-6/7-7-7-7--9-9--9---9-9-9-------5------7--7h9-7--9/-------9-----9------9-------|
D|-----5------7--------9--------------------------------------5------7---------------------------------------|
A|-5/7----7/9---------------------------------------------5/7----7/9-----------------------------------------|
E|--------------------------------------------------------------------------------0--------------------------|
                                                                                      "use Chorus pedal"
[Verse]

e|-----------------------------------------------------------------------------------------------------------|
B|---12--12--12--10-10-10--10-10-10-10--12-12--10-10--8--8--8--8---10-10-10-10--8-8-8-8----------------------|
G|---------------x--x--x---11-11-11-11--x--x---x--x---9--9--9--9---11-11-11-11--9-9-9-9----------------------|
D|-12--12--12----10-10-10--12-12-12-12--12-12--10-10--10-10-10-10--12-12-12-12--9-9-9-9----------------------|
A|-----------------------------------------------------------------------------------------------------------|
E|-----------------------------------------------------------------------------------------------------------|

[Chorus]

e|-----------------------------------------------------------------------------------------------------------|
B|-13-13-13-13--12-12-12--10-10-10--12-12-12--10-10-10/8--8--8----13-13-13-13--12-12-12--10-10-10------------|
G|-12-12-12-12--12-12-12--11-11-11--12-12-12--11-11-11/9--9--9----12-12-12-12--12-12-12--11-11-11------------|
D|-14-14-14-14--14-14-14--12-12-12--12-12-12--12-12-12/10-10-10---14-14-14-14--14-14-14--12-12-12------------|
A|-----------------------------------------------------------------------------------------------------------|
E|-----------------------------------------------------------------------------------------------------------|

e|---7------7------7-----|
B|-----8------8------8---|
G|-------9------9------9-|
D|-----------------------|
A|-----------------------|
E|-0---------------------|


[Solo]

e|-17/12--17b-17b17-15-15b-15b15-14-14h15--------------------------------------------------------------------|
B|----------------------------------------12b12-15b-15b15-------------------------------------10b10----------|
G|--------------------------------------------------------14b14-12b12-11b11-7b7------7h9--9b9--------7h9-----|
D|-------------------------------------------------------------------------------7h9-------------------------|
A|-----------------------------------------------------------------------------------------------------------|
E|-----------------------------------------------------------------------------------------------------------|

e|--------------------------------------------------------------------------------------|
B|--------------------------------------------------------------------------------------|
G|-9-9-9\4--4/7-7-7\4------------------------0h2p0--0-0---------------------------------|
D|---------------------5/9--9---4h5--4b4-2b2-------------2/4\2/4--5--7--5--4--5h7p5p4-5-|
A|----------------------------5---------------------------------------------------------|
E|--------------------------------------------------------------------------------------|

e|-------------------------|
B|----8-----7------15----17|
G|-------------------------|
D|-/9----9\7----/16----17--|
A|-------------------------|
E|-------------------------|
*********            
Submit corrections


        Sick Love  lessons Hard to play? Try these video lessons and learn fast Sick Love  lessons
        
↑ Back to top | Tablatures and chords for acoustic guitar and electric guitar, ukulele, drums are parodies/interpretations of the original songs. You may use it for private study, scholarship, research or language learning purposes only