» » »

Red Hot Chili Peppers - Sick Love Tabs

Artists:  A B C D E F G H I J K L M N O P Q R S T U V W X Y Z # 

Sick Love Tabs

(ver. 1) Click to play this song!
Red Hot Chili Peppers
 Rating:
4.3/5 (25 votes)

 Sick Love  lessons Tabs too difficult? Try these video lessons and learn fast
 
                (2:34)


e|---17\12----17b19---19r17-15-15b17---17r15-14-14h15------------------------------|
B|--------------------------------------------------------------15b17--------------|
G|------------------------------------------------------19r16----------------------|
D|---------------------------------------------------------------------------------|
A|---------------------------------------------------------------------------------|
E|---------------------------------------------------------------------------------|

e|---------------------------------------------------------------------------------|
B|--15b17r15--------------------------------------------------------8h10-10-10-----|
G|-----------14b16r14~-12b14r12-11b12r11~-9b11r9~-----7h9~-----7h9-------------7/9-|
D|------------------------------------------------7h9------------------------------|
A|---------------------------------------------------------------------------------|
E|---------------------------------------------------------------------------------|
                         
e|---------------------------------------------------------------------------------|
B|---------------------------------------------------------------------------------|
G|---------------------------------------------------------------------------------|
D|--14-14-14---------10/12-12-12\9--5/9--9-0-4-5~---4b5r-----------5h7p5--5--------|
A|------------14-14----------------------------------------7b9r7--------7----------|
E|---------------------------------------------------------------------------------| 

e|---------------------------------------------------------------------------------|
B|-------------------------------------------------8-----7--------15----17---------|
G|---------------------------------------------------------------------------------|
D|---------------------------------------------7/9---9\7---7-//16----17------------|
A|-7-/9\7/9b10r9~-10-12p10-9--10-12p10p9-10-12-------------------------------------|
E|---------------------------------------------------------------------------------|            
Submit corrections


        Sick Love  lessons Hard to play? Try these video lessons and learn fast Sick Love  lessons
        
↑ Back to top | Tablatures and chords for acoustic guitar and electric guitar, ukulele, drums are parodies/interpretations of the original songs. You may use it for private study, scholarship, research or language learning purposes only