» » »

Red Hot Chili Peppers - Sick Love Bass

Artists:  A B C D E F G H I J K L M N O P Q R S T U V W X Y Z # 

Sick Love Bass

(ver. 1) Click to play this song!
Red Hot Chili Peppers
 Rating:
4.4/5 (17 votes)

 Sick Love  lessons Tabs too difficult? Try these video lessons and learn fast
 
                Intro
|------------7--------------------------|-------------------|----------------|
|------------------------5-------10---9-|-------------------|----------------|
|---------765-5/7\5---------------------|-------3/5x--5-5677|--------567-5---|
|-5(5)--5------------7-3--x(3)/8----7---|-55-5---------5----|-7-5-0--------7-|

Verse 1 (say goodbye...)
|-------7--------------------------|----------------|-789-789-7---|
|-----------------5----9-----------|----------------|-----------9-|
|----3/5-5/7p5---------------------|----3/5x--5-5677|-------------|
|-55-----------7-3--x-7--7h8-5h7-3-|-55--------5----|-------------|

|--------7--------------------------|------7-----------|---------|
|-----------------5----10-----------|------------------|---------|
|-----765-5h7p5-3-------------------|---7p5---5-575----|-567-777-|
|-55-5-----------3--x/8---7h8-5h7-3-|-5--------------0-|---------|

High Part (I dont know...)
|-------12-------------14/16/14-----------------------------------------------------------|
|----12----12-------14----------14----------12-----------------------10-----------12------|
|-10----------10/12----------------12----12----12-----10-10-9-9---10----10-----12---12----|
|-------------------------------------10----------10------------8---------8/10---------10/|
                                      Back to familiar riff here 
|-----------------------------------|----------------------------------|
|--------------12h14-14p12----------|----------5-----------10----------|
|--------12h14------------14p-12----|------765--7-5------------5-7-5-3-|
|-12-12--------------------------12-|-55-5----------33-x/8-------------|

|----------7-------|---------|
|------------------|---------|
|------3/5----5677-|-567-567-|
|-55-5-------5-----|---------|

Chorus
|------------------------|-----------------------|
|------------------------|----------------54-----|
|------55-5------3-2-0-2-|-----55----5677----7-5-|
|-55--5-----33-3---------|-55-5----5-------------|

|------------------------|---------------|
|------------------------|---------------|
|------55-5------3-2-0-2-|-----55----567-|
|-55--5-----33-3---------|-55-5----5-----|

Verse 2
|---------7-------------------|--------7-------------7-99\7-----|
|-----------------5----10-----|--------------------/9-------9-7-|
|------765-5-3----------------|----3/5---3h55-5/77--------------|
|-55-5---------5-3-x/8----7-3/|55-5-----------------------------|

|--------7----------------------|----------------|
|-----------5------10---0-2-0---|----------------|
|------35-------------3-------00|-0h55--5-77-567-|
|-55-5-----3--3x/8--------------|----------------| 

High part 2
|-------12-------------14/16/14-----------------------------------------------------------|
|----12----12-------14----------14----------12-----------------------10-----------12------|
|-10----------10/12----------------12----12----12-----10-10-9-9---10----10-----12---12----|
|-------------------------------------10----------10------------8---------8/10---------10/|
                                      Back to familiar riff here 
|-----------------------------------|
|-----------14-17p16-14----14-------|
|--------17-------------17----------| 
|-12-12-----------------------12----|

Chorus
|------------------------|-----------------------|
|------------------------|----------------54-----|
|------55-5------3-2-0-2-|-----55----5677----7-5-|
|-55--5-----33-3---------|-55-5----5-------------|

|------------------------|---------------------|
|------------------------|---------------------|
|------55-5------3-2-0-2-|-----55----567-------|
|-55--5-----33-3---------|-55-5----5-----------|


Solo (slapped)
|---------|---5---7-7----9----12--12---|
|---------|----------------------------|
|-3-5-2-3-|-33-3-5-5-5-77-7-10--10--10-|
|--3------|----------------------------|

|---5---7-7----9----12--12---|
|----------------------------|
|-33-3-5-5-5-77-7-10--10--10-|
|----------------------------|

|---5---7-7----9----12--12---141516-|
|-----------------------------------|
|-33-3-5-5-5-77-7-10--10--10--------|
|-----------------------------------|
|---5---7-7----9---9-----9---|
|----------------------------|
|-33-3-5-5-5-77-7-7-7---7-7--|
|----------------------------|
Chorus
|------------------------|-----------------------|
|------------------------|----------------54-----|
|------55-5------3-2-0-2-|-----55----5677----7-5-|
|-55--5-----33-3---------|-55-5----5-------------|

|------------------------|----------------12-11-------|
|------------------------|----------------------14-12-|
|------55-5------3-2-0-2-|-----55----567--------------|
|-55--5-----33-3---------|-55-5----5------------------|

|------------------------|---------------|
|------------------------|---------------|
|------55-5------3-2-0-2-|-----55----567-|
|-55--5-----33-3---------|-55-5----5-----|





            
Submit corrections


        Sick Love  lessons Hard to play? Try these video lessons and learn fast Sick Love  lessons
        
↑ Back to top | Tablatures and chords for acoustic guitar and electric guitar, ukulele, drums are parodies/interpretations of the original songs. You may use it for private study, scholarship, research or language learning purposes only