» » »

Portugal The Man - Waiter Tabs

Artists:  A B C D E F G H I J K L M N O P Q R S T U V W X Y Z # 

Waiter Tabs

(ver. 2) Click to play this song!
Portugal The Man
 Rating:
4/5 (4 votes)

 Waiter lessons Tabs too difficult? Try these video lessons and learn fast
 
                (Intro)
Tempo: ~165
3/4 Timing
     Q    E  E  E  E     Q    E  E  E  E     Q    E  E  E   E   
E||-------------7-----|-------------0-----|-------------7h--8--|
B||----------0--------|----------0--------|----------0---------|
G||-------0-----------|-------0-----------|-------0------------|
D||-------------------|-------------------|--------------------|
A||--7----------------|--7----------------|--7-----------------|
E||-------------------|-------------------|--------------------|
 
 
  Q    E  E  E   E     Q    E  E  E  E     Q    E  E  E  E   
-------------5h--7--|-------------3-----|-------------5-----|
----------0---------|----------0--------|----------0--------|
-------0------------|-------------------|-------------------|
--------------------|-------2-----------|-------2-----------|
--7-----------------|--3----------------|--4----------------|
--------------------|-------------------|-------------------|
 
 
  Q    E  E  E  E     Q    Q    Q      
-------------7-----|-----------------||
----------0--------|------------0----||
-------------------|-----------------||
-------4-----------|-------4---------||
--5----------------|--6--------------||
-------------------|-----------------||
            
Submit corrections


        Waiter lessons Hard to play? Try these video lessons and learn fast Waiter lessons
        
↑ Back to top | Tablatures and chords for acoustic guitar and electric guitar, ukulele, drums are parodies/interpretations of the original songs. You may use it for private study, scholarship, research or language learning purposes only