» » »

Portugal The Man - Shade Tabs

Artists:  A B C D E F G H I J K L M N O P Q R S T U V W X Y Z # 

Shade Tabs

(ver. 2) Click to play this song!
Portugal The Man
 Rating:
4/5 (10 votes)

 Shade lessons Tabs too difficult? Try these video lessons and learn fast
 
                Well no one was cool enough to tab this, and i thought there may be those of you who 
it so... tadaa!

-------------------------------------------------------------------------------
                             SONG NAME - Band Name
-------------------------------------------------------------------------------

Tuning: Standard

INTRO RIFF

e|-8------8--6-----6--1-----1--3-----3--3-----3-3-----3-6-----6-3-----1---|
B|----8--------7----------1--------3--------3-------3-------6-------1-----|
G|------8--------6------2--------3--------3-------3-------7-------2-------|
D|-10-----10-8-----8--3-----3--5-----5--5-----5-5-----5-8-----8-3---------|
A|------------------------------------------------------------------------|
E|------------------------------------------------------------------------|

  (continued)        beginning to here x2
e|-3-----3--3-----3-3-----3-----[]------------------------------------|
B|---3--------3-------3-------O-[]------------------------------------|
G|-----3--------3-------3-------[]------------------------------------|
D|-5-----5--5-----5-5-----5-----[]------------------------------------|
A|----------------------------O-[]------------------------------------|
E|------------------------------[]------------------------------------|


 Singing starts- VERSE

 (the same picking as before) (im kinda iffy on the a minor chord)

riff repeats 3 times and then the 4th is slightly different.
   (the regular)        (4th ending)
e|-3--8---6-----------3--8--6--10---------------------|
B|-3--8---6-----------3--8--6--10---------------------|
G|-3--8---7--5--------3--8--7--11-5-------------------| first half
D|-5--10--8--7--------5--10-8--12-7-------------------|
A|-----------0--------------------0-------------------|
E|----------------------------------------------------|

Then 3 more times with a different 4th ending
   (regular)           4th ending
e|-3--8---6-------------5----------------|
B|-3--8---6-------------7----------------|
G|-3--8---7--5----------5----------------|
D|-5--10--8--7----------7----------------| second half
A|-----------0----------5----------------|
E|---------------------------------------|

Chorus
 (times two)*might be powerchords instead of octaves*
e|-----------------------------------8--6--8------------|
B|-----------------------------------8--6--8------------|
G|---------7-7-7-7-8-8-8-8-----------8--7--8------------|
D|-5-5-5-5-----------------8-8-8-8---10-8--10-----------|
A|---------5-5-5-5-6-6-6-6------------------------------|
E|-3-3-3-3-----------------6-6-6-6----------------------|

play the 2nd half of verse but dont play the first 2 times
then the chorus
there is a sweet jamright here but its kinda fuzzy and i can't figure it out. if you 
thanks.


| /  slide up
| \  slide down
| h  hammer-on
| p  pull-off
| ~  vibrato
| +  harmonic
| x  Mute note
            
Submit corrections


        Shade lessons Hard to play? Try these video lessons and learn fast Shade lessons
        
↑ Back to top | Tablatures and chords for acoustic guitar and electric guitar, ukulele, drums are parodies/interpretations of the original songs. You may use it for private study, scholarship, research or language learning purposes only