» » »

Portugal The Man - People Say Tabs

Artists:  A B C D E F G H I J K L M N O P Q R S T U V W X Y Z # 

People Say Tabs

(ver. 2) Click to play this song!
Portugal The Man
 Rating:
4.6/5 (9 votes)

 People Say lessons Tabs too difficult? Try these video lessons and learn fast
 
                The chords are hard to figure out, so I just learned some of the lead parts.


(INTRO)
e----------------------------------------------------------------------|
B----------------------------------------------------------------------|
G--------------------------------------5--------5-7-7b-7b-7b-5---------|
D-------------5/7-7-5-------------5-7-----7-5-7------------------------|
A------3h5-3-------------3-3--5-7--------------------------------------|
E--3h5-----------------------------------------------------------------|

e------3------3--------------------------------------------------------|
B--3h5----3h5----5-3---------------------------------------------------|
G--------------------5------------5-7b-5-------------------------------|
D-----------------------------5h7--------------------------------------|
A------------------------3/5-------------------------------------------|
E----------------------------------------------------------------------|


(After 1st chorus)
e----------------------------------------------------------------------|
B--5--5---------------------------------5--5---------------------------|
G--7b-7b--5h7---5p4-5p4-5p4-5p4---------7b-7b--5h7---------------------|
D--------------------------------5/7-----------------------------------|
A----------------------------------------------------------------------|
E----------------------------------------------------------------------|

e----------------------------------------------------------------------|
B----------------------------------------------------------------------|
G----------------------------------------------------------------------|
D-------------5/7-7-5--------------------------------------------------|
A------3h5-3-----------------------------------------------------------|
E--3h5-----------------------------------------------------------------|


(During 2nd Verse)
It sounds like John is using a wah pedal on this riff.
I don't have one, so I just got what sounds right to me.

"Share your love..."
e----------------------------------------------------------------------|
B----------------------------------------------------------------------|
G----------5-----------5-----------5----5----5--5----------------------|
D--5-7-5-----7-5-7-5-------5-7-5------7----7---------------------------|
A--------7-----------7-----------7-------------------------------------|
E----------------------------------------------------------------------|

(After second chorus)
e----------------------------------------------------------------------|
B-------------------------------------5--5-----------------------------|
G---------------5-------5-7-7b-7b-5---7b-7b-5--------------------------|
D-----------5-7---7-5-7------------------------------------------------|
A--3-3--5-7------------------------------------------------------------|
E----------------------------------------------------------------------|

e------3--3h5-3--------------------------------------------------------|
B--3h5----------6-5-3--------------------------------------------------|
G---------------------5------------------------------------------------|
D----------------------------------------------------------------------|
A----------------------------------------------------------------------|
E----------------------------------------------------------------------|

(Towards the end, in the background there's like a solo.
Its really hard to hear clearly, so this is probably like not even 60% right.
I pretty sure I'm missing a big chunk too. I'm sorry.)

"It will be alright, it will be alright..."
e----------------------------------------------------------------------|
B--5------------5------------------------------------------------------|
G--7b--5-7-5----7b--5-7-5----------------5---5-------------------------|
D------------7------------5-7--5-7---5-7---7---7-----------------------|
A----------------------------------7-----------------------------------|
E----------------------------------------------------------------------|

e---------------------------------------8------------------------------|
B-----------------8-5-----8-5------8h10--------------------------------|
G--5-7-5---5-7-5------5h7------7h9-------------------------------------|
D--------7-------------------------------------------------------------|
A----------------------------------------------------------------------|
E----------------------------------------------------------------------|


And thats all I have.
            
Submit corrections


        People Say lessons Hard to play? Try these video lessons and learn fast People Say lessons
        
↑ Back to top | Tablatures and chords for acoustic guitar and electric guitar, ukulele, drums are parodies/interpretations of the original songs. You may use it for private study, scholarship, research or language learning purposes only