» » »

Portugal The Man - Our And In And In And Out Tabs

Artists:  A B C D E F G H I J K L M N O P Q R S T U V W X Y Z # 

Our And In And In And Out Tabs

(ver. 2) Click to play this song!
Portugal The Man
 Rating:
3.7/5 (6 votes)

 Our And In And In And Out lessons Tabs too difficult? Try these video lessons and learn fast
 
                E||--2--2--2--2--2--2--2--2-2-|--x--x--x--x--x--x--x--x-x-|
B||--3--3--3--3--3--3--3--3-3-|--7--7--7--7--7--7--7--7-7-|
G||--2--2--2--2--2--2--2--2-2-|--5--5--5--5--5--5--5--5-5-|
D||---------------------------|--0--0--0--0--0--0--0--0-0-|
A||---------------------------|--0--0--0--0--0--0--0--0-0-|
E||---------------------------|--x--x--x--x--x--x--x--x-x-|

 
|-x--x--x--x--x--x--x--x--x-|--x-x-x-x-x-x-x-x---x-x-x-x-x-x-x-||
|-12-12-12-12-12-12-12-12-12|--7-7-7-7-7-7-7-7---9-9-9-9-9-9-9-||
|-10-10-10-10-10-10-10-10-10|--5-5-5-5-5-5-5-5---7-7-7-7-7-7-7-||
|-0--0--0--0--0--0--0--0--0-|--0-0-0-0-0-0-0-0---0-0-0-0-0-0-0-||
|-0--0--0--0--0--0--0--0--0-|--0-0-0-0-0-0-0-0---0-0-0-0-0-0-0-||
|-x--x--x--x--x--x--x--x--x-|--x-x-x-x-x-x-x-x---x-x-x-x-x-x-x-||
            
Submit corrections


        Our And In And In And Out lessons Hard to play? Try these video lessons and learn fast Our And In And In And Out lessons
        
↑ Back to top | Tablatures and chords for acoustic guitar and electric guitar, ukulele, drums are parodies/interpretations of the original songs. You may use it for private study, scholarship, research or language learning purposes only