» » »

Portugal The Man - Everyone Is Golden Tabs

Artists:  A B C D E F G H I J K L M N O P Q R S T U V W X Y Z # 

Everyone Is Golden Tabs

(ver. 2) Click to play this song!
Portugal The Man
 Rating:
4/5 (4 votes)

 Everyone Is Golden lessons Tabs too difficult? Try these video lessons and learn fast
 
                Portugal. The Man - Everyone Is Golden (chords)
The Satanic Satanist (2009)

Always use the chords as structured in the tab to sound better.
Any errors or improvements feel free to comment.
PS: I took the intro from another tab.

Intro:

   A                   C#m
e|-x-----------------------------------------------------|
B|-5-------------------5h7-5h7-5h7-5h7-5h7-5h7-5h7-5h7---|
G|-6---6h9p6-6h9p6---------------------------------------|
D|-7----------------7------------------------------------|
A|-x-----------------------------------------------------|
E|-x-----------------------------------------------------|

   G                                Bm
e|-5h7-5h7-5h7-5h7-5h7-5h7-5h7-5h7--7/9--7--5h7p5--7/9--7--5---|
B|-------------------------------------------------------------|
G|-------------------------------------------------------------|
D|-------------------------------------------------------------|
A|-------------------------------------------------------------|
E|-------------------------------------------------------------|

   D                        Dm
e|-2--2--2--2--2--2--2--2---1---1---1---1---1---1------------|
B|-3--3--3--3--3--3--3--3---3---3---3---3---3---3------------|
G|-2--2--2--2--2--2--2--2---2---2---2---2---2---2------------|
D|-0--0--0--0--0--0--0--0---0---0---0---0---0---0------------|
A|-x--x--x--x--x--x--x--x---x---x---x---x---x---x------------|
E|-x--x--x--x--x--x--x--x---x---x---x---x---x---x------------|

Verse 1:
  
   A
  "Diamonds shine like stars under the ground"
e|-x----x----x----x----x----x----x----x----x----x----x---------|
B|-5----5----5----5----5----5----5----5----5----5----5---------|
G|-6----6----6----6----6----6----6----6----6----6----6---------|
D|-7----7----7----7----7----7----7----7----7----7----7---------|
A|-x----x----x----x----x----x----x----x----x----x----x---------|
E|-x----x----x----x----x----x----x----x----x----x----x---------|

  C#m
  "Little rivers run in rings around the town"
e|-x----x----x----x----x----x----x----x----x----x----x---------|
B|-5----5----5----5----5----5----5----5----5----5----5---------|
G|-6----6----6----6----6----6----6----6----6----6----6---------|
D|-6----6----6----6----6----6----6----6----6----6----6---------|
A|-x----x----x----x----x----x----x----x----x----x----x---------|
E|-x----x----x----x----x----x----x----x----x----x----x---------|
 
   G 
  "Everyone's a soldier"
e|-x----x----x----x----x----x----x----x----x----x----x---------|
B|-3----3----3----3----3----3----3----3----3----3----3---------|
G|-4----4----4----4----4----4----4----4----4----4----4---------|
D|-5----5----5----5----5----5----5----5----5----5----5---------|
A|-x----x----x----x----x----x----x----x----x----x----x---------|
E|-x----x----x----x----x----x----x----x----x----x----x---------|
    
  Bm
  "Just marching towards the ocean"
e|-x----x----x----x----x----x----x----x----x----x----x---------|
B|-3----3----3----3----3----3----3----3----3----3----3---------|
G|-4----4----4----4----4----4----4----4----4----4----4---------|
D|-4----4----4----4----4----4----4----4----4----4----4---------|
A|-x----x----x----x----x----x----x----x----x----x----x---------|
E|-x----x----x----x----x----x----x----x----x----x----x---------|
 
   D                              Dm
  "So we packed up all we had and moved in '93"
e|-2--2--2--2--2--2--2--2--2---1--1--1--1--1--1--1--1--1-------|
B|-3--3--3--3--3--3--3--3--3---3--3--3--3--3--3--3--3--3-------|
G|-2--2--2--2--2--2--2--2--2---2--2--2--2--2--2--2--2--2-------|
D|-0--0--0--0--0--0--0--0--0---0--0--0--0--0--0--0--0--0-------|
A|-x--x--x--x--x--x--x--x--x---x--x--x--x--x--x--x--x--x-------|
E|-x--x--x--x--x--x--x--x--x---x--x--x--x--x--x--x--x--x-------|

Chorus:

   A
  "Everyone is golden"
e|-------------------------------------------------------------|
B|-2---2---2---2---2---2---2---2---2---2---2-------------------|
G|-2---2---2---2---2---2---2---2---2---2---2-------------------|
D|-2---2---2---2---2---2---2---2---2---2---2-------------------|
A|-------------------------------------------------------------|
E|-x---x---x---x---x---x---x---x---x---x---x-------------------|
  
   A
  "Everyone is golden"
e|-------------------------------------------------------------|
B|-2---2---2---2---2---2---2---2---2---2---2-------------------|
G|-2---2---2---2---2---2---2---2---2---2---2-------------------|
D|-2---2---2---2---2---2---2---2---2---2---2-------------------|
A|-------------------------------------------------------------|
E|-x---x---x---x---x---x---x---x---x---x---x-------------------|

   C#m
  "Nobody will love them"
e|--4---4---4---4---4---4---4---4---4---4---4------------------|
B|--5---5---5---5---5---5---5---5---5---5---5------------------|
G|--6---6---6---6---6---6---6---6---6---6---6------------------|
D|--6---6---6---6---6---6---6---6---6---6---6------------------|
A|--4---4---4---4---4---4---4---4---4---4---4------------------|
E|--x---x---x---x---x---x---x---x---x---x---x------------------|

   C#m
  "Nobody will love them"
e|--4---4---4---4---4---4---4---4---4---4---4------------------|
B|--5---5---5---5---5---5---5---5---5---5---5------------------|
G|--6---6---6---6---6---6---6---6---6---6---6------------------|
D|--6---6---6---6---6---6---6---6---6---6---6------------------|
A|--4---4---4---4---4---4---4---4---4---4---4------------------|
E|--x---x---x---x---x---x---x---x---x---x---x------------------|

 A
 "Everyone is golden now
 Everyone is golden

 C#m
 Everyone is golden now
 Everyone is golden"

Verse 1:

   A
  "And we took"
e|-x----x----x----x----x----x----x----x----x----x----x---------|
B|-5----5----5----5----5----5----5----5----5----5----5---------|
G|-6----6----6----6----6----6----6----6----6----6----6---------|
D|-7----7----7----7----7----7----7----7----7----7----7---------|
A|-x----x----x----x----x----x----x----x----x----x----x---------|
E|-x----x----x----x----x----x----x----x----x----x----x---------|
 
  C#m
  "A train into the town"
e|-x----x----x----x----x----x----x----x----x----x----x---------|
B|-5----5----5----5----5----5----5----5----5----5----5---------|
G|-6----6----6----6----6----6----6----6----6----6----6---------|
D|-6----6----6----6----6----6----6----6----6----6----6---------|
A|-x----x----x----x----x----x----x----x----x----x----x---------|
E|-x----x----x----x----x----x----x----x----x----x----x---------|
  
   G
  "And stuck another needle in the ground"
e|-x----x----x----x----x----x----x----x----x----x----x---------|
B|-3----3----3----3----3----3----3----3----3----3----3---------|
G|-4----4----4----4----4----4----4----4----4----4----4---------|
D|-5----5----5----5----5----5----5----5----5----5----5---------|
A|-x----x----x----x----x----x----x----x----x----x----x---------|
E|-x----x----x----x----x----x----x----x----x----x----x---------|
    
   Bm
  "And if we never made another sound then we know"
e|-x----x----x----x----x----x----x----x----x----x----x---------|
B|-3----3----3----3----3----3----3----3----3----3----3---------|
G|-4----4----4----4----4----4----4----4----4----4----4---------|
D|-4----4----4----4----4----4----4----4----4----4----4---------|
A|-x----x----x----x----x----x----x----x----x----x----x---------|
E|-x----x----x----x----x----x----x----x----x----x----x---------|

   D                              Dm
  "So we packed up all we had and moved in '93"
e|-2--2--2--2--2--2--2--2--2----1--1--1--1--1--1--1--1--1-------|
B|-3--3--3--3--3--3--3--3--3----3--3--3--3--3--3--3--3--3-------|
G|-2--2--2--2--2--2--2--2--2----2--2--2--2--2--2--2--2--2-------|
D|-0--0--0--0--0--0--0--0--0----0--0--0--0--0--0--0--0--0-------|
A|-x--x--x--x--x--x--x--x--x----x--x--x--x--x--x--x--x--x-------|
E|-x--x--x--x--x--x--x--x--x----x--x--x--x--x--x--x--x--x-------|

Chorus: -


Verse 2:
 
   E                   E7             D
    "And I...             I lift you  up"
e|-0----0----0----0----0----0----0----2----2----2----2---------|
B|-0----0----0----0----3----3----3----3----3----3----3---------|
G|-1----1----1----1----1----1----1----2----2----2----2---------|
D|-2----2----2----2----0----0----0----0----0----0----0---------|
A|-2----2----2----2----2----2----2----0----0----0----0---------|
E|-0----0----0----0----0----0----0----0----0----0----0---------|

                                 Dm                      A
 "Gathered around the school to hear just what they    found"
e|-2----2----2----2----2----2----1----1----1----1----1---x----|
B|-3----3----3----3----3----3----3----3----3----3----3---5----|
G|-2----2----2----2----2----2----2----2----2----2----2---6----|
D|-------------------------------------------------------7----|
A|-------------------------------------------------------x----|
E|-------------------------------------------------------x----|

 "They told us they had tried"   
e|-x----x----x----x----x----x----x----x----x----x----x---------|
B|-5----5----5----5----5----5----5----5----5----5----5---------|
G|-6----6----6----6----6----6----6----6----6----6----6---------|
D|-7----7----7----7----7----7----7----7----7----7----7---------|
A|-x----x----x----x----x----x----x----x----x----x----x---------|
E|-x----x----x----x----x----x----x----x----x----x----x---------|

                            D
 "Still the little boy had died"
e|-x----x----x----x----x----2----2----2----2----2----2---------|
B|-5----5----5----5----5----3----3----3----3----3----3---------|
G|-6----6----6----6----6----2----2----2----2----2----2---------|
D|-7----7----7----7----7----0----0----0----0----0----0---------|
A|-x----x----x----x----x----x----x----x----x----x----x---------|
E|-x----x----x----x----x----x----x----x----x----x----x---------|

                         Dm
 "We gathered around to hear just what they'd done
e|-2---2--2---2---2---2---1---1----1----1----1----1------------|
B|-3---3--3---3---3---3---3---3----3----3----3----3------------|
G|-2---2--2---2---2---2---2---2----2----2----2----2------------|
D|-0---0--0---0---0---0---0---0----0----0----0----0------------|
A|-x---x--x---x---x---x---x---x----x----x----x----x------------|
E|-x---x--x---x---x---x---x---x----x----x----x----x------------|

Verse 1:

  A                      C#m
 "Yeah, they shined like stars under the ground
    G
  And everyone's a soldier
       Bm
  Just marching towards the ocean
   D                               Dm
  'Till we packed up all we had and moved in '93"


Chorus: - 

(repeat until the end)
            
Submit corrections


        Everyone Is Golden lessons Hard to play? Try these video lessons and learn fast Everyone Is Golden lessons
        
↑ Back to top | Tablatures and chords for acoustic guitar and electric guitar, ukulele, drums are parodies/interpretations of the original songs. You may use it for private study, scholarship, research or language learning purposes only