» » »

Portugal The Man - AKA M80 The Wolf Tabs

Artists:  A B C D E F G H I J K L M N O P Q R S T U V W X Y Z # 

AKA M80 The Wolf Tabs

(ver. 1) Click to play this song!
Portugal The Man
 Rating:
4.8/5 (16 votes)

 AKA M80 The Wolf lessons Tabs too difficult? Try these video lessons and learn fast
 
                this is played throughout most of the song and is pretty clean sounding

|------------------------------------------------------------------------------|
|-------8-----8-----8---8---------7-----5------7---8---------7---8----10---12--|
|---9-----9-----9--------------5----5-----5---------------8---8----8-----------|
|-9---9-----9-----9---9------7--7-----7-----7----7------9--9---9----9---9------|
|------------------------------------------------------------------------------|
|------------------------------------------------------------------------------|

|--------------|
|----------8---|
|-----6--------|
|------5-------|
|-5h7---7------|
|--------------|

the 2nd guitar uses these chords throughout the verses and the chorus

|-7-|-5-|-7-|-x-|
|-8-|-5-|-7-|-x-|
|-9-|-5-|-8-|-6-|
|-9-|-7-|-9-|-5-|
|-7-|-x-|-9-|-7-|
|-x-|-x-|-x-|-x-|

they strum this pretty hard right before the chorus

|-x-|
|-8-|
|-6-|
|-5-|
|-7-|
|-x-|

the 2nd guitar plays this in the background of the chorus with some fast tremelo and a little distortion

|--7-----------------7---------------7-----------------------------------|
|---8-10-7-8--11s7----8-10-7h8p7v----8-10-7-8---11s7---12*-10h12p10-8----|
|-9----------9------9---------------9----------9-------9-----------------|
|------------------------------------------------------------------------|
|------------------------------------------------------------------------|
|------------------------------------------------------------------------|

that should be enough for u to figure it all out
ps portugal the man rocks
enjoi
            
Submit corrections


        AKA M80 The Wolf lessons Hard to play? Try these video lessons and learn fast AKA M80 The Wolf lessons
        
↑ Back to top | Tablatures and chords for acoustic guitar and electric guitar, ukulele, drums are parodies/interpretations of the original songs. You may use it for private study, scholarship, research or language learning purposes only