Home » P » Paul Mccartney »

Paul Mccartney - Maybe I'm Amazed Tabs

Artists:  A B C D E F G H I J K L M N O P Q R S T U V W X Y Z # 

Maybe I'm Amazed Tabs

(ver. 3) Click to play this song!
Paul Mccartney
"This is my version of the solo from Maybe I'm Amazed by Paul McCartney. I kinda fudged the ending. 


Enjoy...

|-------------------------------|------------------------------------------------------|
|---5b7p-5--9--7--5-------------|----5b7p-5--9--7--5-----------------------------------|
|-6----------------6-4---8b9p-6-|-6------------------6-4---9b8p------------------------|
|-------------------------------|-------------------------------9----------------------|
|-------------------------------|------------------------------------------------------|
|-------------------------------|------------------------------------------------------|

|-------------------------------|------------------------------------------------------|
|---5b7p-5--9--7--5-------------|----------------------------5-------------------------|
|-6-----------------6-4-8-9-8-6-|------------6/7/6--4-----4----------------------------|
|-------------------------------|-8b6p------------------6------6---9b10p9--7--5b4p-2-4-|
|-------------------------------|-------9----------------------------------------------|
|-------------------------------|------------------------------------------------------|

|-------------------------------|
|-------------------------------|
|--------8----11/13---11--------|
|--9----------------------------|
|-----9-------------------------|
|-------------------------------|

this part i'm not too sure about
"            
Submit corrections

↑ Back to top | Tablatures and chords for acoustic guitar and electric guitar, ukulele, drums are parodies/interpretations of the original songs. You may use it for private study, scholarship, research or language learning purposes only