Home » P » Paul Mccartney »

Paul Mccartney - Maybe I'm Amazed Bass

Artists:  A B C D E F G H I J K L M N O P Q R S T U V W X Y Z # 

Maybe I'm Amazed Bass

(ver. 1) Click to play this song!
Paul Mccartney
"++++++++++++++++++++++++++++++++++++
| Paul McCartney- Maybe I'm Amazed |
++++++++++++++++++++++++++++++++++++


"Baby wont you help me understand?..."


Im amazed there weren't any bass tabs for this song
anyway here it is, please rate
cheers!

With this song I shall make you mine Vania Francisca <3


Tuning: EADG


Verse
"Maybe Im amazed at the way you pulled me out of time..."
1.
G|------------------------------------------------------------|
D|-8~----7~---------2-5~----8~----7~----6~----5~--------------|
A|-------------3~-----------------------------------3~--------|
E|------------------------------------------------------------|

Chorus
"Baby Im a man, maybe Im a lonely man..."
2.
G|-------------------------------------------------------------|
D|-----------------------------4-4-5-5-5-5-4h5-5-5-5-----------|
A|-5-5-5-5-5-5-5-5-5-5-5-5-5-5-----------------------5~--------|
E|-------------------------------------------------------------|

"Baby Im a man, maybe you're the only woman..."
3.
G|-------------------------------------------------------7\-----7~---------7~\--------|
D|-----------------------------4-4-5-5-5-5-4h5-5-5-5-4~-----3~-------3-2~-----2-7~----|
A|-5-5-5-5-5-5-5-5-5-5-5-5-5-5--------------------------------------------------------|
E|------------------------------------------------------------------------------------|

Bridge
4.
G|--------------------------------------------------------------------|
D|-8~----7~----5~----2-5~--7~--8~---8-7~--------------0-1-2-3-4-5-6-7-|
A|-----------------3------------------------3~----3-4-----------------|
E|--------------------------------------------------------------------|

5.
G|-------------------------------------------------------------------|
D|-8~----7~----5~----2-3-5~---7-8~----7~----6~----5~-----------2-5~--|
A|-----------------3------------------------------------3~-----------|
E|-------------------------------------------------------------------|

Chorus
"Baby Im a man, maybe Im a lonely man..."
6.
G|---------------------------------------------------------------------|
D|-----------------------------------4-4-5-5-5-5-4h5-5-5-5-------------|
A|-5-5-5-5-4h5-5-5-5-4h5-5-5-5-4h5-5-----------------------4h5~--------|
E|---------------------------------------------------------------------|

"Baby Im a man, maybe you're the only woman..."
7.
G|-------------------------------------------------------7\-----7~---------7~\--------|
D|-----------------------------4-4-5-5-5-5-4h5-5-5-5-4~-----3~-------3-2~-----2-7~----|
A|-5-5-5-5-5-5-5-5-5-5-5-5-5-5--------------------------------------------------------|
E|------------------------------------------------------------------------------------|

Verse
"Maybe Im amazed at the way you're with me all the time..."
8.
G|------------------------------------------------------------------|
D|-8~---8-7~---------2-5~---7-8~----7~--------------0-1-2-3-4-5-6-7-|
A|--------------3~------------------------3~----3-4-----------------|
E|------------------------------------------------------------------|

"Maybe Im amazed at the way you help me sing the song..."
9.
G|---------------------------------------------------------------|
D|-8~----7~----5~---2-3-5~-5-7-8~----7~----6~----5~--------------|
A|----------------3------------------------------------3~--------|
E|---------------------------------------------------------------|

Chorus
"Oh, oh..."
10.
G|---------------------------------------------------------------------|
D|-----------------------------------4-4-5-5-5-5-4h5-5-5-5-------------|
A|-5-5-5-5-4h5-5-5-5-4h5-5-5-5-4h5-5-----------------------4h5~--------|
E|---------------------------------------------------------------------|

"Oh, oh..."
11.
G|-------------------------------------------------------7\-----7~---------7~\--------|
D|-----------------------------4-4-5-5-5-5-4h5-5-5-5-4~-----3~-------3-2~-----2-7~----|
A|-5-5-5-5-5-5-5-5-5-5-5-5-5-5--------------------------------------------------------|
E|------------------------------------------------------------------------------------|

Bridge
12.
G|--------------------------------------------------------------------|
D|-8~----7~----5~----2-5~--7~--8~---8-7~--------------0-1-2-3-4-5-6-7-|
A|-----------------3------------------------3~----3-4-----------------|
E|--------------------------------------------------------------------|

13.
G|----------------------------------------------------------------|
D|-8~----7~----5~----2-3-5~---7-8~----7~----6~----5~--------------|
A|-----------------3------------------------------------3~--------|
E|----------------------------------------------------------------|

Outro
14.
G|------------------------------------------------------6h7~--19~--|
D|-------------------------------4-5-5-5-5-5-5-5-5-5---------------|
A|-5-5-5-5-5-5-5-5-5-5-5-5-5-5-5---------------------5~------------|
E|-----------------------------------------------------------------|

15.
G|-----------------|
D|---------5h7-9p7-|
A|-5~--7h9---------|
E|-----------------|


Please rate thanks!!


Lyrics:

Baby, I'm amazed at the way you love me all the time,
and maybe i'm afraid of the way I leave you.
maybe I'm amazed at the way you pulled me out of time,
you hung me on the line.
maybe I'm amazed at the way I really need you.

Baby, I'm a man, maybe I'm a lonely man
who's in the middle of something
that he doesn't really understand.

Baby, I'm a man,
and maybe you're the only woman who could ever help me.
baby, won't you help me to understand?

Maybe I'm amazed at the way you're with me all the time,
maybe I'm afraid of the way leave you.
maybe I'm amazed at the way you help me sing my song,
right me when I'm wrong
maybe I'm amazed at the way  really need you.



+++++++++++++++++++++++++++++++++
| Raileff                       |
+++++++++++++++++++++++++++++++++
"            
Submit corrections

↑ Back to top | Tablatures and chords for acoustic guitar and electric guitar, ukulele, drums are parodies/interpretations of the original songs. You may use it for private study, scholarship, research or language learning purposes only