Home » P » Paul Mccartney »

Paul Mccartney - Maybe I'm Amazed Tabs

Artists:  A B C D E F G H I J K L M N O P Q R S T U V W X Y Z # 

Maybe I'm Amazed Tabs

(ver. 2) Click to play this song!
Paul Mccartney
"I noticed that there's not that much tabs for this great solo here so I thought  I would
it out. Hope you like it! I am just gonna break this one up into parts for you so it
it easier. I will also tab out the second solo eventhough it's pretty similar to the 
thanks.

First Solo

E|-------------------------------|
B|----6-8-6-8b--6----------------|
G|--7-------------7--5--9-10-9-7-|
D|-------------------------------|
A|-------------------------------|
E|-------------------------------|

E|------------------------------|
B|----6-8-6-8b--6-------6-5-----|
G|--7-------------7--5------5---|
D|------------------------------|
A|------------------------------|
E|------------------------------|

E|-------------------------------------------------|
B|----6-8-6-8b--6----------------------------------|
G|--7-------------7--5--9-10-9-7--7-8-7-5--5-6-5-3-|
D|-------------------------------------------------|
A|-------------------------------------------------|
E|-------------------------------------------------|

Second Solo

E|-------------------------------|
B|----6-8-6-8b--6----------------|
G|--7-------------7--5--9-10-9-7-|
D|-------------------------------|
A|-------------------------------|
E|-------------------------------|

E|--------------------------------------------|
B|----6h8p6-8b--6-------6-5-----6p5---6p5-----|
G|--7-------------7--5------5-------5-----5/7-|
D|--------------------------------------------|
A|--------------------------------------------|
E|--------------------------------------------|

E|-------------------------------------------------|
B|----6-8-6-8b--6----------------------------------|
G|--7-------------7--5--9-10-9-7--7-8-7-5--5-6-5-3-|
D|-------------------------------------------------|
A|-------------------------------------------------|
E|-------------------------------------------------|

Throughout the solo, there are a couple notes that I probably have missed, but they are
minor. One more thing, on the bend on the 8th fret, bend it up then down

Key

b = bend
h = hammer on
p = pull off
/ = slide
"            
Submit corrections

↑ Back to top | Tablatures and chords for acoustic guitar and electric guitar, ukulele, drums are parodies/interpretations of the original songs. You may use it for private study, scholarship, research or language learning purposes only