Home » P » Paramore »

Paramore - Hard Times Tabs

Artists:  A B C D E F G H I J K L M N O P Q R S T U V W X Y Z # 

Hard Times Tabs

(ver. 3) Click to play this song!
Paramore
[Intro]
e|---------------------------------------------------------------------------| 
B|--------------------------------8------------------------------------------| 
G|---8--10--10--8------8--10--10---8-----------------------------------------| 
D|-10-10------10-8---10-10------10-------------------------------------------| 
A|---------------------------------------------------------------------------| 
E|---------------------------------------------------------------------------| 

e|---------8-----------8-------------8------------8---| 
B|---------9-----------8-------------9--------8---8---| 
G|---8--10-10---10--8--8------8--10--10---10---8--8---| 
D|-10-10---10-----10-8-10---10-10----10-----10----10--| 
A|---------8-----------10------------8------------10--| 
E|---------------------8--------------------------8---| 

[Verse]
e|---------------------------------------------------------------------------| 
B|---------------------------------8-----------------------------------------| 
G|---8--10--10--8------8--10---10---8----------------------------------------|X2 
D|-10-10------10-8---10-10-------10------------------------------------------| 
A|---------------------------------------------------------------------------| 
E|---------------------------------------------------------------------------| 

[Chorus]
e|8--8--8--8--8--8--8--8--8--8--8--8--8--8--8--8--6--6--6--6--6--6--6--6-8--8--8--8--8--8--8--8-| 
B|9--9--9--9--9--9--9--9--8--8--8--8--8--8--8--8--6--6--6--6--6--6--6--6-9--9--9--9--9--9--9--9-| 
G|10-10-10-10-10-10-10-10-8--8--8--8--8--8--8--8--6--6--6--6--6--6--6--6-10-10-10-10-10-10-10-10| 
D|10-10-10-10-10-10-10-10-10-10-10-10-10-10-10-10-8--8--8--8--8--8--8--8-10-10-10-10-10-10-10-10|X2 
A|8--8--8--8--8--8--8--8--10-10-10-10-10-10-10-10-8--8--8--8--8--8--8--8-8--8--8--8--8--8--8--8-| 
E|------------------------8--8--8--8--8--8--8--8--6--6--6--6--6--6--6--6------------------------| 

[Verse]
e|---------8-----------8-------------8------------8------------------------------| 
B|---------9-----------8-------------9--------8---8------------------------------| 
G|---8--10-10---10--8--8------8--10--10---10---8--8------------------------------| 
D|-10-10---10-----10-8-10---10-10----10-----10----10-----------------------------| 
A|---------8-----------10------------8------------10-----------------------------| 
E|---------------------8--------------------------8------------------------------| 

e|---------------------------------------------------------------------------| 
B|---------------------------------8-----------------------------------------| 
G|---8--10--10--8------8--10---10---8----------------------------------------| 
D|-10-10------10-8---10-10-------10------------------------------------------|X2 
A|---------------------------------------------------------------------------| 
E|---------------------------------------------------------------------------| 

[Chorus]
e|8--8--8--8--8--8--8--8--8--8--8--8--8--8--8--8--6--6--6--6--6--6--6--6-8--8--8--8--8--8--8--8-| 
B|9--9--9--9--9--9--9--9--8--8--8--8--8--8--8--8--6--6--6--6--6--6--6--6-9--9--9--9--9--9--9--9-| 
G|10-10-10-10-10-10-10-10-8--8--8--8--8--8--8--8--6--6--6--6--6--6--6--6-10-10-10-10-10-10-10-10| 
D|10-10-10-10-10-10-10-10-10-10-10-10-10-10-10-10-8--8--8--8--8--8--8--8-10-10-10-10-10-10-10-10|X2 
A|8--8--8--8--8--8--8--8--10-10-10-10-10-10-10-10-8--8--8--8--8--8--8--8-8--8--8--8--8--8--8--8-| 
E|------------------------8--8--8--8--8--8--8--8--6--6--6--6--6--6--6--6------------------------| 

[Middle 8] 
"tell my friends.......kick you.........friends......kick you" 
e|--------------8--------------8-------------8------------8---------------------------| 
B|--------------9--------------8-------------9------------8---------------------------| 
G|--------------10-------------8-------------10-----------8---------------------------| 
D|--------------10-------------10------------10-----------10--------------------------|X2 
A|--------------8--------------10------------8------------10--------------------------| 
E|-----------------------------8--------------------------8---------------------------| 

on the second time another guitar does this: 
".......when you hit the ground.....ground........" 
e|---------------------------------------------------| 
B|------------------------------9~~~~~---------------| 
G|-----------------------------------------10~~~~~~--| 
D|---------------------------------------------------| 
A|---------------------------------------------------| 
E|---------------------------------------------------| 

[Chorus]x4
e|8--8--8--8--8--8--8--8--8--8--8--8--8--8--8--8--6--6--6--6--6--6--6--6-8--8--8--8--8--8--8--8-| 
B|9--9--9--9--9--9--9--9--8--8--8--8--8--8--8--8--6--6--6--6--6--6--6--6-9--9--9--9--9--9--9--9-| 
G|10-10-10-10-10-10-10-10-8--8--8--8--8--8--8--8--6--6--6--6--6--6--6--6-10-10-10-10-10-10-10-10| 
D|10-10-10-10-10-10-10-10-10-10-10-10-10-10-10-10-8--8--8--8--8--8--8--8-10-10-10-10-10-10-10-10| 
A|8--8--8--8--8--8--8--8--10-10-10-10-10-10-10-10-8--8--8--8--8--8--8--8-8--8--8--8--8--8--8--8-| 
E|------------------------8--8--8--8--8--8--8--8--6--6--6--6--6--6--6--6------------------------| 
on the 5th and 6th time another guitar does this: 
e|---------------------------------------------------------| 
B|------9-------9--------4----4------8----8-------10--10-8-| 
G|----10-10---10--10----5-5--5--5---8-8--8--8----8--8-8--8-| 
D|--10------10------10-5----5----5-8----8----8-10-----10-8 | 
A|---------------------------------------------------------| 
E|---------------------------------------------------------| 

e|------------------------------------------------------------|
B|------9-------9--------4----4------8----8-------10-----10---| 
G|----10-10---10--10----5-5--5--5---8-8--8--8----8--8---8--8--| 
D|--10------10------10-5----5----5-8----8----8-10-----10----10| 
A|------------------------------------------------------------| 
E|------------------------------------------------------------|            
Submit corrections

↑ Back to top | Tablatures and chords for acoustic guitar and electric guitar, ukulele, drums are parodies/interpretations of the original songs. You may use it for private study, scholarship, research or language learning purposes only