» » »

Paramore - Hard Times Bass

Artists:  A B C D E F G H I J K L M N O P Q R S T U V W X Y Z # 

Hard Times Bass

(ver. 1) Click to play this song!
Paramore
 Rating:
4.1/5 (31 vote)

 Hard Times lessons Tabs too difficult? Try these video lessons and learn fast
 
                [Intro]
0:07
G|-------17-\---------------------------------------------------------------------|
D|--------------------------------------------------------------------------------|
A|---/----------------------------------------------------------------------------|
E|--------------------------------------------------------------------------------|

G|-------------------------------------------8------------------------------------|
D|----------------------------------------10---6-6--------------------------------|
A|--6-6-6--8-8---------3-3--6-6-6--8-8--------------------------------------------|
E|--------------4-4-4-------------------6-----------------------------------------|

[Verse]
0:15
"All that I want..."
G|-------------------------------------------8------------------------------------|
D|----------------------------------------10---6-6--------------------------------|
A|--6-6-6--8-8---------3-3--6-6-6--8-8--------------------------------------------|
E|--------------4-4-4-------------------6-----------------------------------------|

G|----------------------------------------------8---------------------------------|
D|-------------------------------------------10---6-6-\---------------------------|
A|--6-6-6--8-8----------3-x-3--6-6-6--8-8-----------------------------------------|
E|--------------4-4-4----------------------6--------------------------------------|

[Chorus]
0:34
"Hard times!"
G|--------------------------------------------------------------------------------|
D|-----------------------------------------------------------------6-6-6---6-4----|
A|--------------------3--3--3-3-3-1h3-/-6--6--6-6-6--6-6--------------------------|
E|--1--1--1-1-1-1-3-3------------------------------------4--4--4-4-------4--------|

G|------------------------------------------------8-8-8---------------------------|
D|------------------------------------------------------8------6-6---6------------|
A|--------------------3--3--3-3-3-1h3-/-6--6--6-6---------------------------------|
E|--1--1--1-1-1-1-3-3-------------------------------------4--4-----4--------------|

[Interlude]
0:52
G|-------------------------------------------8-\----------------------------------|
D|----------------------------------------10--------------------------------------|
A|--6-6-6--8-8---------3-3--6-6-6--8-8--------------------------------------------|
E|--------------4-4-4-------------------6-----------------------------------------|

[Verse]
1:00
"Walking around..."
G|-------------------------------------------8------------------------------------|
D|----------------------------------------10---6-6--------------------------------|
A|--6-6-6--8-8---------3-3--6-6-6--8-8--------------------------------------------|
E|--------------4-4-4-------------------6-----------------------------------------|

G|----------------------------------------------8---------------------------------|
D|-------------------------------------------10---6-6-\---------------------------|
A|--6-6-6--8-8----------3-x-3--6-6-6--8-8-----------------------------------------|
E|--------------4-4-4----------------------6--------------------------------------|

[Chorus]
1:17
"Hard times!"
G|--------------------------------------------------------------------------------|
D|-------------------------------------------------------------------6-6-6---6-4--|
A|--------------------3--3--3-3-3-1h3-/-6--6--6-6-6--6-8-8------------------------|
E|--1--1--1-1-1-1-3-3--------------------------------------4--4--4-4-------4------|

G|--------------------------------------------------------------------------------|
D|--------------------------------------------------------------6-6---6-----------|
A|--------------------3--3--3-3-3-1h3-/-6--6--6-6----6-8-8------------------------|
E|--1--1--1-1-1-1-3-3--------------------------------------4--4-----4-------------|


[Bridge]
1:35
"Tell my friends..."
G|------------------------------------------8-------------------------------------|
D|---------------------------------------10----6----------------------------------|
A|--6-6-6--8----------3----6-6-6--8-------------------6-\-------------------------|
E|--------------4-4-4------------------6------------------------------------------|

G|-------------------------------------------------------------8------------------|
D|----------------------------------------------------------10----6-6-------------|
A|--6-6-6--8-8----8-6------------3-3----1-/-6-6-6--8-8----------------------------|
E|--------------------8-6--4-4-4--------------------------6-----------------------|

G|------10-10-10-10-10-10-10-8----------------------------------------------------|
D|-----------------------------10-8-----------------------------------------------|
A|--------------------------------------------------------------------------------|
E|--------------------------------------------------------------------------------|

[Chorus]
2:09
"Hard times!"
G|--------------------------------------------------------------------------------|
D|-------------------------------------------------------------------6-6-6---6-4--|
A|--------------------3--3--3-3-3-1h3-/-6--6--6-6-6--6-8-8------------------------|
E|--1--1--1-1-1-1-3-3--------------------------------------4--4--4-4-------4------|

G|--------------------------------------------------------------------------------|
D|-------------------------------------------------------------------6-5----------|
A|--------------------3--3--3-3-3-1h3-/-6--6--6-6-6--6-8-8---------3--------------|
E|--1--1--1-1-1-1-3-3--------------------------------------4--4--4----------------|

G|------------------------------------------------8-8-8---------------------------|
D|------------------------------------------------------8------6---6--------------|
A|--------------------3--3--3-3-3-1h3-/-6--6--6-6---------------------------------|
E|--1--1--1-1-1-1-3-3-------------------------------------4--4---4---4------------|

G|--------------------------------------------------------------------------------|
D|---------------------------------------------------------6-6-6-6--6-5-----------|
A|--------------------3--3--3-3-3-1h3-/-6--6--6-6-6--6-8-8------------------------|
E|--1--1--1-1-1-1-3-3-------------------------------------------------------------|

[Outro]
2:42
G|---------------------------------------------------------------------------|
D|---------------------------------------------------------------------------|
A|--------------------------3--3--3--3--3-1-3--1-/-6--6--6--6--6-8-8---------|
E|--1--1--1--1--1--1-1--1-1--------------------------------------------------|

G|---------------------------------------------------------------------------|
D|---------------------------------------------------------------------------|
A|---------------------------------------------------------------------------|
E|--4--4--4--4--4--3---------------------------------------------------------|

G|---------------------------------------------------------------------------|
D|---------------------------------------------------------------------------|
A|----------------------3--3--3--3--3-1-3--1-/-6--6--6--6--6-8-8-------------|
E|--1--1--1--1--1--1-1-------------------------------------------------------|

G|---------------------------------------------------------------------------|
D|-------------6-6---6-------------------------------------------------------|
A|---------------------------------------------------------------------------|
E|--4--4--4--4-----4---4-----------------------------------------------------|            
Submit corrections


        Hard Times lessons Hard to play? Try these video lessons and learn fast Hard Times lessons
        
↑ Back to top | Tablatures and chords for acoustic guitar and electric guitar, ukulele, drums are parodies/interpretations of the original songs. You may use it for private study, scholarship, research or language learning purposes only