Home » P » Paramore »

Paramore - Hard Times Bass

Artists:  A B C D E F G H I J K L M N O P Q R S T U V W X Y Z # 

Hard Times Bass

(ver. 2) Click to play this song!
Paramore
[Intro]
(Right before the verse)
G|-17\-|
D|-----|
A|-----|
E|-----|

[Verse]
(Slightly different rhthym on measure 2 during the 3rd time)
G|-----------|--------------|-----------|-----------------|
D|-----------|--------------|-----------|-------13--------|
A|-6-6-6-8-8-|-4-4-4-8-8-10-|-6-6-6-8-8-|-/13-15----11-11-| x3
E|-----------|--------------|-----------|-----------------|

[Chorus]
G|------|-----------|-----------------|-------------|-------------------|
D|------|-----------|-----------------|-------------|-------6-6-----5-5-|
A|------|-----------|-0h2-3-3-3-3-3-1-|-6-6-6-6-6-6-|-------------------|
E|-14\1-|-1-1-1-1-1-|-----------------|-------------|-4-4-4-----3-3-----|

G|-----------|-----------------|-------8-8-8---|-----6-6---6-|
D|-----------|-----------------|-------------8\|---------6---|
A|-----------|-0h2-3-3-3-3-3-1-|-6-6-6---------|-4-4---------|
E|-1-1-1-1-1-|-----------------|---------------|-------------|

[Verse]
G|-----------|--------------|-----------|-----------|
D|-----------|--------------|-----------|-------13\-|
A|-6-6-6-8-8-|-4-4-4-8-8-10-|-6-6-6-8-8-|-/13-15----|
E|-----------|--------------|-----------|-----------|
(Slightly different rhthym on measure 2 during the 2nd time)
G|-----------|--------------|-----------|-----------------|
D|-----------|--------------|-----------|-------13--------|
A|-6-6-6-8-8-|-4-4-4-8-8-10-|-6-6-6-8-8-|-/13-15----11-11-| x2
E|-----------|--------------|-----------|-----------------|

[Chorus]
(The fill right before the chorus is kinda hard to hear, I gave it my best guess)
G|-------------|-----------|-----------------|---------------|-------------------|
D|-------------|-----------|-----------------|---------------|-------6-6-----5-5-|
A|-------------|-----------|-0h2-3-3-3-3-3-1-|-6-6-6-6-6-6h8-|-------------------|
E|-4-4-6-4-4-3-|-1-1-1-1-1-|-----------------|---------------|-4-4-4-----3-3-----|

G|-----------|-----------------|-----------------|-----6-6---6-|
D|-----------|-----------------|-----------------|---------6---|
A|-----------|-0h2-3-3-3-3-3-1-|-6-6-6-6-6-6-6h8-|-4-4---------|
E|-1-1-1-1-1-|-----------------|-----------------|-------------|

[Bridge]
(There are spaces in between each time the bass plays here)
G|---------|---------|---------|-------------|-----------|---------------------|
D|---------|---------|---------|-------13----|-----------|-6-5-----------------|
A|-6-6-6-8-|---------|-6-6-6-8-|-13-15----11-|-6-6-6-8-8-|-----6---------------|
E|---------|-4-4-4-8-|---------|-------------|-----------|-------8-6-4-4-4-8-8-|
                                                          
G|-------------|------------------|
D|-------------|---------13-------|
A|-4h6-6-6-8-8-|-4/13-15----11-11-|
E|-------------|------------------|

[Chorus]
G|-----------------------------|
D|-15-15-15-15-15-15-15-15-----|
A|-------------------------16\-|
E|-----------------------------|

G|-----------|-----------------|---------------|-------------------|
D|-----------|-----------------|---------------|-------6-6-----5-5-|
A|-----------|-0h2-3-3-3-3-3-1-|-6-6-6-6-6-6h8-|-------------------| x2
E|-1-1-1-1-1-|-----------------|---------------|-4-4-4-----3-3-----|

G|-----------|-----------------|-------8-8-------|-----6---5---|
D|-----------|-----------------|---------------8-|-------------|
A|-----------|-0h2-3-3-3-3-3-1-|-6-6-6-----6-----|-4-4---4---3-|
E|-1-1-1-1-1-|-----------------|-----------------|-------------|

G|-----------|-----------------|-------------------------|
D|-----------|-----------------|---------5-5-6-6-6-6-----|
A|-----------|-0h2-3-3-3-3-3-1-|-6-6-6-6-----------------|
E|-1-1-1-1-1-|-----------------|---------------------4-3-|

[Outro]
G|-----------------|-----------------|-----------------|-------------|
D|-----------------|-----------------|-----------------|-------------|
A|-----------------|-3-3-3-3-3-3-3-1-|-6-6-6-6-6-6-6-8-|-------------|
E|-1-1-1-1-1-1-1-1-|-----------------|-----------------|-4-4-4-4-4-3-|

G|---------------|-----------------|-----------------|-----------------|
D|---------------|-----------------|-----------------|---------6-6---6-|
A|---------------|-3-3-3-3-3-3-3-1-|-6-6-6-6-6-6-6-8-|-------------6---|
E|-1-1-1-1-1-1-1-|-----------------|-----------------|-4-4-4-4---------|            
Submit corrections

↑ Back to top | Tablatures and chords for acoustic guitar and electric guitar, ukulele, drums are parodies/interpretations of the original songs. You may use it for private study, scholarship, research or language learning purposes only